Oops, an error
Loading. Please wait.

Five Serpents Teeth bass

version 1
version 1

Whole song

Interactive

by Evile
802 views 1 this week
no commentswrite comment
1 2 3 4 5
1 last vote to show rating
add to favorites
×
Save as Personal and add changes to this tab that will be seen only by you. Learn more ›
×
You can save this tab as Personal to edit and correct it or add notes. All changes will be seen only by you. Learn more »
launch autoscroll
font size
0
reset
guitar tuner
edit
Autoscroll
slow
fast
+/-
esc
set tempo
stop
Evile - Five Serpent's Teeth (Five Serpent's Teeth)
200/150 BPM, 4/4
4-string bass, tune down 1/2 step (D#G#C#F#)
Transcribed 100% by ear by Krakenbrau (a.k.a. Rogmatic)
Please send questions, comments, corrections to krakenbrau@gmail.com.
Transcribed using PowerTab, exported into ASCII,
  and edited for style/formatting.

Notes:
I'm pretty sure the bass doesn't play during the intro.
The only part I'm really not sure about is while he's
singing 'One / Of these five / Serpent's teeth'.  I'd
be glad to know what's really being played there.


  Q=200
  Q  Q  Q  Q    Q  Q  E E E E   W          +W
|-------------|---------------|----------|--------|
|-------------|---------------|----------|--------|
|-------------|---------------|----------|--------|
|-3-----2-----|-3-----1-1-1-1-|-0--------|-(0)----|


  Q  H.        W          E E E E E Q.     Q  H.
|------------|----------|----------------|----------|
|------------|----------|----------------|----------|
|------------|----------|---5------------|----------|
|-0----------|----------|-0---6-5-3-6----|-0--------|


                            |-3-|
  Q  H.        W          E S S S E E H      E E E E E E E E
|------------|----------|------------------|-----------------|
|------------|----------|------------------|-----------------|
|------------|----------|---5h6p5----------|---5-------------|
|-0----------|----------|-0-------3-6------|-0---6-5-3-6-5-3-|


      |-3-|                         |-3-|
    E S S S E E S S S S S S S S   E S S S E E S S S S S S S S
||------------------------------|----------------------------|
||o-----------------------------|----------------------------|
||o---5h6p5---------------------|---5h6p5--------------------|
||--0-------3-6-0-0-0---0-0-0---|-0-------3-6-0-0-0---0-0-0--|


                               1.
    |-3-|                         |-3-|
  E S S S E E S S S S S S S S   E S S S E E E E E E
|-----------------------------|----------------------||
|-----------------------------|---------------------o||
|---5h6p5---------------------|---5h6p5---------2-1-o||
|-0-------3-6-0-0-0---0-0-0---|-0-------3-6-0-1------||


  2.
    |-3-|       |-3-|
  E S S S E E E S S S E E
|-------------------------|
|---------------5h6p5-----|
|---5h6p5-------------5-8-|
|-0-------3-6-0-----------|


    |-3-|                         |-3-|       |-3-|
  E S S S E E S S S S S S S S   E S S S E E E S S S E E
|-----------------------------|--------------------------|
|-----------------------------|---------------5h6p5------|
|---5h6p5---------------------|---5h6p5-------------5-8--|
|-0-------3-6-0-0-0---0-0-0---|-0-------3-6-0------------|


    |-3-|
  E S S S E E S S S S S S S S   E E E E E E E E   E E E E E E E E
|-----------------------------|-----------------|-----------------|
|-----------------------------|-----------------|-----------------|
|---5h6p5---------------------|-----2-1-----2-1-|-----2-1-----2-1-|
|-0-------3-6-0-0-0---0-0-0---|-0-1-----0-1-----|-0-1-----0-1-----|


                  $
  E E E E E E E E   Q  Q  Q  Q    Q  Q  E E E E
|-----------------|-------------|---------------|
|-----------------|-------------|---------------|
|-----2-1-----2-1-|-------------|---------------|
|-0-1-----0-1-----|-3-----2-----|-3-----1-1-1-1-|


      |-3-|                                           |-3-|
    E S S S E E S S S S E E   E E E E E E S S S S   E S S S E E S S S S E E
||--------------------------|---------------------|-------------------------|
||o-------------------------|---------------------|-------------------------|
||o---5h6p5-----------------|---------------------|---5h6p5-----------------|
||--0-------3-6-0-0-0---0-0-|-0-0-0-0-0-0-0-0-0---|-0-------3-6-0-0-0---0-0-|


  E E E E E E E E   E E E E E S S S S S S   E E E E E S S S S S S
|-----------------|-----------------------|-----------------------|
|-----------------|-----------------------|-----------------------|
|-------------2-1-|---------1-1-1-1-1-1-1-|-0-0---0---------------|
|-0-0-0-0-0-1-----|-1-1---1---------------|---------4-4-4-4-4-4-4-|


    |-3-|                     |-3-|       |-3-|
  E S S S E E S S S S E E   E S S S E E E S S S E E
|-------------------------|--------------------------||
|-------------------------|---------------5h6p5-----o||
|---5h6p5-----------------|---5h6p5-------------5-8-o||
|-0-------3-6-0-0-0---0-0-|-0-------3-6-0------------||


  E E E E E S S S S S S   E E E E E E E E   E E E E E S S S S S S
|-----------------------|-----------------|-----------------------|
|-----------------------|-----------------|-----------------------|
|---------3-------------|-----3-2-----3-2-|---------3-------------|
|-3-3---3---2-2-2-2-2-2-|-2-3-----2-3-----|-3-3---3---2-2-2-2-2-2-|


  |-3-|
  Q Q Q H      E E E E E S S S S S S   W
|------------|-----------------------|------|
|------------|-----------------------|------|
|------------|-----------------------|------|
|-3-2-0-2----|-3-3---3-2-2-2-2-2-2-2-|------|


                             To Coda
  |--3--|  |--3--|
  Q  Q  Q  Q  Q  Q   S S S S  H.
|------------------|-----------------|
|------------------|-----------------|
|------------------|-----------------|
|-7--6--5--3--2--1-|-0-0-0-0---------|


      |-3-|                         |-3-|
    E S S S E E S S S S S S S S   E S S S E E S S S S S S S S
||------------------------------|-----------------------------|
||o-----------------------------|-----------------------------|
||o---5h6p5---------------------|---5h6p5---------------------|
||--0-------3-6-0-0-0---0-0-0---|-0-------3-6-0-0-0---0-0-0---|


                               1.
    |-3-|                         |-3-|       |-3-|
  E S S S E E S S S S S S S S   E S S S E E E S S S E E
|-----------------------------|---------------------------||
|-----------------------------|---------------5h6p5------o||
|---5h6p5---------------------|---5h6p5-------------5-8--o||
|-0-------3-6-0-0-0---0-0-0---|-0-------3-6-0-------------||


  2.
  E E E E E E E E     E E E E E E E E   E E E E E E E E   H    H
|-----------------||------------------|-----------------|-----------|
|-----------------||o-----------------|-----------------|-----------|
|-----2-1-----2-1-||o-----------------|-----------------|-----------|
|-0-1-----0-1-----||--0-0-0-0-0-0-0-0-|-0-0-0-0-0-0-0-0-|-3----2----|


  H    H        E E E E E E E E   H    H      E E  E  E E  E  Q
|------------||-----------------|-----------|--------------------|
|-----------o||-----------------|-----------|--------------------|
|-----------o||-----------------|-----------|-----10-10-9-10-----|
|-3----1-----||-0-0-7-6-9-8-4-3-|-4----3----|-0-0------------11--|


               Q=150
   D.S. al Coda
               &
  Q   Q  Q  Q     W          +W           +W
|--------------||----------|------------|--------|
|----10-----9--||----------|------------|--------|
|--------------||----------|------------|--------|
|-8------7-----||-6--------|-(6)--------|-(6)----|


  W            E E E E E E E E   E E E E E E E E   E E E E E E E E
|----------||------------------|-----------------|-----------------|
|----------||o-----------------|-----------------|-----------------|
|----------||o---7-5-----------|-----------------|---7-5-----------|
|-6--------||--0-----5-6-0-0-0-|-6-0-0-0-6-0-0-0-|-0-----5-6-0-0-0-|


  E E E E E E Q    E E E E E E E E   E E E E E E E E   E E E E E E E E
|----------------|-----------------|-----------------|-----------------|
|----------------|-----------------|-----------------|-----------------|
|-------------5--|---7-5-----------|-----------------|---7-5-----------|
|-6-0-5-0-4-0----|-0-----5-6-0-0-0-|-6-0-0-0-6-0-0-0-|-0-----5-6-0-0-0-|


  1.                 2.
  E E E E E E E E     E E E E E E E E   E E E E E E E E   E E E E E E E S S
|------------------||-----------------|-----------------|--------------------|
|-----------------o||-----------------|-----------------|--------------------|
|-----------------o||-----------------|-----------------|--------------------|
|-1-1-1-1-1-1-1-1--||-6-0-0-0-6-0-3-2-|-0-5-0-0-0-5-0-0-|-0-5-0-0-0-5-0-3p2--|


  H=H
  E E E E E E E E   E E E E E E E E   E E E E E E E E   E E E E E E E S S
|-----------------|-----------------|-----------------|--------------------|
|-----------------|-----------------|-----------------|--------------------|
|-----------------|-----------------|-----------------|--------------------|
|-6-0-0-0-6-0-0-0-|-6-0-0-0-6-0-3-2-|-0-5-0-0-0-5-0-0-|-0-5-0-0-0-5-0-3p2--|


  Q=200
  W          +H     +E  E E E   E S S S S S S E E S S S S
|----------|------------------|----------------------------|
|----------|------------------|----------------------------|
|----------|------------------|----------------------------|
|-0--------|-(0)----(0)-3-5-5-|-6-0-0-0-0-0-0-0-6-0-0-0-0--|


  E S S S S S S E E E E   E S S S S S S E Q  E   E S S S S S S E E E E
|-----------------------|----------------------|-----------------------|
|-----------------------|----------------------|-----------------------|
|-----------------------|----------------------|-----------------------|
|-6-0-0-0-0-0-0-0-3-5-5-|-6-0-0-0-0-0-0-0-6--6-|-6-0-0-0-0-0-0-0-3-5-5-|


  E S S S S S S E E S S S S   E S S S S S S E E E E   E E E E E E E E
|---------------------------|-----------------------|------------------|
|---------------------------|-----------------------|------------------|
|---------------------------|-----------------------|------------------|
|-6-0-0-0-0-0-0-0-6-0-0-0-0-|-6-0-0-0-0-0-0-0-3-5-5-|-6---5---3---2----|


    E S S S S S S E E E E   E S S S S S S E E E E   E S S S S S S E E E E
||------------------------|-----------------------|----------------------|
||o-----------------------|-----------------------|----------------------|
||o-----------------------|-----------------------|----------------------|
||--3-0-0-0-0-0-0-0-3-3-0-|-2-0-0-0-0-0-0-0-2-2-0-|-1-0-0-0-0-0-0-0-1-1-0|


  E E E E E E E E   E S S S S S S E E E E   E S S S S S S E E E E
|-----------------|-----------------------|-----------------------|
|-----------------|-----------------------|-----------------------|
|-5h7-7-7-5h7-7-7-|-3-3-3-3-3-3-3-3-3-3-3-|-5-5-5-5-5-5-5-5-5-5-5-|
|-----------------|-----------------------|-----------------------|


  E S S S S S S E E E E   E E E E E E E E
|-----------------------|------------------||
|-----------------------|-----------------o||
|-----------------------|-----------------o||
|-6-6-6-6-6-6-6-6-6-6-6-|-3h5-5-5-3p0-0-0--||


  W          +W           +W           +W
|----------|------------|------------|--------|
|----------|------------|------------|--------|
|----------|------------|------------|--------|
|-0--------|-(0)--------|-(0)--------|-(0)----|


      |-3-|                         |-3-|
    E S S S E E S S S S S S S S   E S S S E E S S S S S S S S
||------------------------------|-----------------------------|
||o-----------------------------|-----------------------------|
||o---5h6p5---------------------|---5h6p5---------------------|
||--0-------3-6-0-0-0---0-0-0---|-0-------3-6-0-0-0---0-0-0---|


                               1.,2.,3.
    |-3-|                         |-3-|
  E S S S E E S S S S S S S S   E S S S E E E E E E
|-----------------------------|----------------------||
|-----------------------------|---------------------o||
|---5h6p5---------------------|---5h6p5---------2-1-o||
|-0-------3-6-0-0-0---0-0-0---|-0-------3-6-0-1------||


  4.
    |-3-|       |-3-|
  E S S S E E E S S S E E
|-------------------------|
|---------------5h6p5-----|
|---5h6p5-------------5-8-|
|-0-------3-6-0-----------|


     E  S  S  S  S  S  S  E  E  E  E   E S S S S S S E E E E
||-----------------------------------|------------------------|
||o----------------------------------|------------------------|
||o-10-10-10-10-10-10-10-10-10-10-10-|-9-9-9-9-9-9-9-9-9-9-9--|
||-----------------------------------|------------------------|


  E S S S S S S E E E E   E E E E E E E E   E S S S S S S E E E E
|-----------------------|-----------------|-----------------------|
|-----------------------|-----------------|-----------------------|
|-8-8-8-8-8-8-8-8-8-8-8-|-5h7-7-7-5h7-7-7-|-3-3-3-3-3-3-3-3-3-3-3-|
|-----------------------|-----------------|-----------------------|


  E S S S S S S E E E E   E S S S S S S E E E E   E E E E E E E E
|-----------------------|-----------------------|------------------||
|-----------------------|-----------------------|-----------------o||
|-5-5-5-5-5-5-5-5-5-5-5-|-----------------------|-----------------o||
|-----------------------|-6-6-6-6-6-6-6-6-6-6-6-|-3h5-5-5-3p0-0-0--||


    E E E E E E E E   E E E E E E E E   H    H      H    H
||------------------|-----------------|-----------|-----------||
||o-----------------|-----------------|-----------|----------o||
||o-----------------|-----------------|-----------|----------o||
||--0-0-0-0-0-0-0-0-|-0-0-0-0-0-0-0-0-|-3----2----|-3----1----||


  E E E E E E E E   H    H      E E  E  E E  E  Q    Q   Q  Q  Q
|-----------------|-----------|--------------------|--------------|
|-----------------|-----------|--------------------|----10-----9--|
|-----------------|-----------|-----10-10-9-10-----|--------------|
|-0-0-7-6-9-8-4-3-|-4----3----|-0-0------------11--|-8------7-----|


  Q  Q  Q  Q    Q  Q  E E E E
|-------------|---------------|
|-------------|---------------|
|-------------|---------------|
|-3-----2-----|-3-----1-1-1-1-|


      |-3-|                         |-3-|
    E S S S E E S S S S S S S S   E S S S E E S S S S S S S S
||------------------------------|-----------------------------|
||o-----------------------------|-----------------------------|
||o---5h6p5---------------------|---5h6p5---------------------|
||--0-------3-6-0-0-0---0-0-0---|-0-------3-6-0-0-0---0-0-0---|


                               1.
    |-3-|                         |-3-|
  E S S S E E S S S S S S S S   E S S S E E E E E E
|-----------------------------|----------------------||
|-----------------------------|---------------------o||
|---5h6p5---------------------|---5h6p5---------2-1-o||
|-0-------3-6-0-0-0---0-0-0---|-0-------3-6-0-2------||


  2.
    |-3-|       |-3-|         |-3-|                 |-3-|
  E S S S E E E S S S E E   E S S S E E E E E E   E S S S E E E E E E
|-------------------------|---------------------|----------------------|
|---------------5h6p5-----|---------------------|----------------------|
|---5h6p5-------------5-8-|---5h6p5-------------|---5h6p5--------------|
|-0-------3-6-0-----------|-0-------3-6-0-0-0-0-|-0-------3-6-0-0-0-0--|


    |-3-|                                  |-3-|
  E S S S E E E E E E   E E E E E Q.     E S S S E E S S S S S S S S
|---------------------|----------------|------------------------------|
|---------------------|----------------|------------------------------|
|---5h6p5-------------|---5------------|---5h6p5----------------------|
|-0-------3-6-0-0-0-0-|-0---6-5-3-5----|-0-------3-6-0-0-0---0-0-0----|


    |-3-|
  E S S S E E S S S S S S S S   Q  Q  Q  Q    Q  Q  E E E E
|-----------------------------|-------------|---------------|
|-----------------------------|-------------|---------------|
|---5h6p5---------------------|-------------|---------------|
|-0-------3-6-0-0-0---0-0-0---|-3-----2-----|-3-----2-2-2-2-|


  W
|----------*|----|
|----------*|----|
|----------*|----|
|-1--------*|----|


Duration Legend
---------------
W - whole; H - half; Q - quarter; E - 8th; S - 16th; T - 32nd; X - 64th; a - acciaccatura
+ - note tied to previous; . - note dotted; .. - note double dotted
Uncapitalized letters represent notes that are staccato (1/2 duration)
Irregular groupings are notated above the duration line
Duration letters will always appear directly above the note/fret number it represents the
duration for.  Duration letters with no fret number below them represent rests.  Multi-
bar rests are notated in the form Wxn, where n is the number of bars to rest for.  Low
melody durations appear below the staff

Tablature Legend
----------------
 h   - hammer-on
 p   - pull-off
 b   - bend
 pb  - pre-bend
 r   - bend release (if no number after the r, then release immediately)
 /\  - slide into or out of (from/to "nowhere")
 s   - legato slide
 S   - shift slide
(n)  - natural harmonic
[n]  - artificial harmonic
n(n) - tapped harmonic

Misc Legend
-----------
 |  - bar
||  - double bar
||o - repeat start
o|| - repeat end
*|  - double bar (ending)
 :  - bar (freetime)
 $  - Segno
 &  - Coda
Tempo markers -  = BPM(8/16=s8/s16), where s8 = swing 8ths, s16 = swing 16ths

            
            
Suggest correction
Creating personal tab
Creating personal tab
You can edit any tab online and save it as your Personal.

You can edit, replace or remove any tab part or add personal notes – all changes will be seen only by you.

Personal tabs can be accessed anytime from any device, even offline.
Learn more »
Give kudos to tab author, rate the tab!
1 2 3 4 5
comments
print report bad tab
guest
You may want to rate the tab now too:
select rating
Wanna post a correction for this tab? Suggest correction