Oops, an error
Loading. Please wait.

Killer From The Deep bass

version 1
version 1

Whole song

Interactive

by Evile
980 views 1 this week
1 commentread comment
1 2 3 4 5
2 more votes to show rating
add to favorites
×
Save as Personal and add changes to this tab that will be seen only by you. Learn more ›
×
You can save this tab as Personal to edit and correct it or add notes. All changes will be seen only by you. Learn more »
launch autoscroll
font size
0
reset
guitar tuner
edit
Autoscroll
slow
fast
+/-
esc
set tempo
stop
Transcribed by an unregistered user

Bass (Mike)

       E  E  E  E  E  E  E  E     E  E  E  E  E  E  Q      
F#||---------------------------|--------------------------|
C#||*--------------------------|--------------------------|
G#||*--------------------------|--------------------------|
D#||---0-----0-----0-----0-----|--0-----0-----0-----6\----|


  E  E  E  E  E  E  E  E     E  E  E  E  E  E  Q      
--------------------------|--------------------------|
--------------------------|--------------------------|
--------------------------|--------------------------|
--0-----0-----0-----0-----|--0-----0-----0-----6\----|


  E  E  E  E  E  E  E  E     E  E  E  E  E  E  Q      
--------------------------|--------------------------|
--------------------------|--------------------------|
--------------------------|--------------------------|
--0-----0-----0-----0-----|--0-----0-----0-----6\----|


  E  E  E  E  E  E  E  E     E  E  E  E  E  E  Q      
--------------------------|--------------------------|
--------------------------|--------------------------|
--------------------------|--------------------------|
--0-----0-----0-----0-----|--0-----0-----0-----6\----|


  E  E  E  E  E  E  E  E     E  E  E  E  E  E  Q      
--------------------------|--------------------------|
--------------------------|--------------------------|
--------------------------|--------------------------|
--0--0--0--0--0--0--0--0--|--0--0--0--0--0--0--6\----|


  E  E  E  E  E  E  E  E     E  E  E  E  E  E  Q      
--------------------------|--------------------------|
--------------------------|--------------------------|
--------------------------|--------------------------|
--0--0--0--0--0--0--0--0--|--0--0--0--0--0--0--6\----|


  E  E  E  E  E  E  E  E     E  E  E  E  E  E  Q      
--------------------------|--------------------------|
--------------------------|--------------------------|
--------------------------|--------------------------|
--0--0--0--0--0--0--0--0--|--0--0--0--0--0--0--6\----|


  E  E  E  E  E  E  E  E     E  E  E  E  E  E  Q      
--------------------------|--------------------------|
--------------------------|--------------------------|
--------------------------|--------------------------|
--0--0--0--0--0--0--0--0--|--0--0--0--0--0--0--6\----|


  S S E  S S E  S S E  S S E     S S E  S S E  S S E  Q      
------------------------------|-----------------------------|
------------------------------|-----------------------------|
------------------------------|-----------------------------|
--0-0-0--0-0-0--0-0-0--0-0-0--|--0-0-0--0-0-0--0-0-0--6\----|


  S S E  S S E  S S E  S S E     S S E  S S E  S S E  Q      
------------------------------|-----------------------------|
------------------------------|-----------------------------|
------------------------------|-----------------------------|
--0-0-0--0-0-0--0-0-0--0-0-0--|--0-0-0--0-0-0--0-0-0--6\----|


  S S E  S S E  S S E  S S E     S S E  S S E  S S E  Q      
------------------------------|-----------------------------|
------------------------------|-----------------------------|
------------------------------|-----------------------------|
--0-0-0--0-0-0--0-0-0--0-0-0--|--0-0-0--0-0-0--0-0-0--6\----|


  S S E  S S E  S S E  S S E     S S E  S S E  S S E  Q      
------------------------------|-----------------------------|
------------------------------|-----------------------------|
------------------------------|-----------------------------|
--0-0-0--0-0-0--0-0-0--0-0-0--|--0-0-0--0-0-0--0-0-0--6\----|


  Q    Q    H           W                   W                 
---------------------|-------------------|-------------------|
---------------------|-------------------|-------------------|
---------------------|-------------------|-------------------|
--0------------------|-------------------|-------------------|


  W                   E  Q    Q    Q    E     E  Q    Q    Q    E   
-------------------|-----------------------|-----------------------|
-------------------|-----------------------|-----------------------|
-------------------|-----------------------|-----------------------|
-------------------|--0------------3----6--|--5------------3----6--|


  E  Q    Q    Q    E     E.  E.  E  E.  E.  E     E  S S S S S S S S Q    E   
-----------------------|------------------------|-----------------------------|
-----------------------|------------------------|-----------------------------|
-----------------------|--4-------4--5----------|-----------------------------|
--5------------3----6--|------6----------6---5--|--0--0-0-0-0-0-0-0-0-3----6--|


  E  S S S S S S S S Q    E     E  S S S S S S S S Q    E   
-----------------------------|-----------------------------|
-----------------------------|-----------------------------|
-----------------------------|-----------------------------|
--5--0-0-0-0-0-0-0-0-3----6--|--5--0-0-0-0-0-0-0-0-3----6--|


  E.  E.  E  E.  E.  E     E  S S S S S S S S Q    E   
------------------------|-----------------------------|
------------------------|-----------------------------|
--4-------4--5----------|-----------------------------|
------6----------6---5--|--0--0-0-0-0-0-0-0-0-3----6--|


  E  S S S S S S S S Q    E     E  S S S S S S S S Q    E   
-----------------------------|-----------------------------|
-----------------------------|-----------------------------|
-----------------------------|-----------------------------|
--5--0-0-0-0-0-0-0-0-3----6--|--5--0-0-0-0-0-0-0-0-3----6--|


  E.  E.  E  E.  E.  E     E  S S S S S S S S Q    E   
------------------------|-----------------------------|
------------------------|-----------------------------|
--4-------4--5----------|-----------------------------|
------6----------6---5--|--0--0-0-0-0-0-0-0-0-3----6--|


  E  S S S S S S S S Q    E     E  S S S S S S S S Q    E   
-----------------------------|-----------------------------|
-----------------------------|-----------------------------|
-----------------------------|-----------------------------|
--5--0-0-0-0-0-0-0-0-3----6--|--5--0-0-0-0-0-0-0-0-3----6--|


  E.  E.  E  E.  E.  E     E  S S S S S S S S Q    E   
------------------------|-----------------------------|
------------------------|-----------------------------|
--4-------4--5----------|-----------------------------|
------6----------6---5--|--0--0-0-0-0-0-0-0-0-3----6--|


  E  S S S S S S S S Q    E     E  S S S S S S S S Q    E   
-----------------------------|-----------------------------|
-----------------------------|-----------------------------|
-----------------------------|-----------------------------|
--5--0-0-0-0-0-0-0-0-3----6--|--5--0-0-0-0-0-0-0-0-3----6--|


  E.  E.  E  E.  E.  E     E  S S S S S S S S S S S S S S  
------------------------|---------------------------------|
------------------------|---------------------------------|
--4-------4--5----------|---------------------------------|
------6----------6---5--|--6--0-0-0-0-0-0-0-0-0-0-0-0-0-0-|


  S S S S S S S S S S Q    E     E  S S S S S S S S S S S S S S  
------------------------------|---------------------------------|
------------------------------|---------------------------------|
------------------------------|---------------------------------|
--0-0-0-0-0-0-0-0-0-0-2----3--|--6--0-0-0-0-0-0-0-0-0-0-0-0-0-0-|


  S S S S S S S S S S Q    E     E  S S S S S S S S S S S S S S  
------------------------------|---------------------------------|
------------------------------|---------------------------------|
------------------------------|---------------------------------|
--0-0-0-0-0-0-0-0-0-0-6----3--|--1--0-0-0-0-0-0-0-0-0-0-0-0-0-0-|


  S S S S S S S S S S Q    E     E  S S S S S S S S S S S S S S  
------------------------------|---------------------------------|
------------------------------|---------------------------------|
------------------------------|---------------------------------|
--0-0-0-0-0-0-0-0-0-0-2----3--|--6--0-0-0-0-0-0-0-0-0-0-0-0-0-0-|


  E.  E.  E  E.  E.  E     E  S S S S S S S S S S S S S S  
------------------------|---------------------------------|
------------------------|---------------------------------|
--4-------4--5----------|---------------------------------|
------6----------6---5--|--6--0-0-0-0-0-0-0-0-0-0-0-0-0-0-|


  S S S S S S S S S S Q    E     E  S S S S S S S S S S S S S S  
------------------------------|---------------------------------|
------------------------------|---------------------------------|
------------------------------|---------------------------------|
--0-0-0-0-0-0-0-0-0-0-2----3--|--6--0-0-0-0-0-0-0-0-0-0-0-0-0-0-|


  S S S S S S S S S S Q    E     E  S S S S S S S S S S S S S S  
------------------------------|---------------------------------|
------------------------------|---------------------------------|
------------------------------|---------------------------------|
--0-0-0-0-0-0-0-0-0-0-6----3--|--1--0-0-0-0-0-0-0-0-0-0-0-0-0-0-|


  S S S S S S S S S S Q    E     E  S S S S S S S S S S S S S S  
------------------------------|---------------------------------|
------------------------------|---------------------------------|
------------------------------|---------------------------------|
--0-0-0-0-0-0-0-0-0-0-2----3--|--6--0-0-0-0-0-0-0-0-0-0-0-0-0-0-|


  E.  E.  E  E.  E.  E     E  S S S S S S S S Q    E   
------------------------|-----------------------------|
------------------------|-----------------------------|
--4-------4--5----------|-----------------------------|
------6----------6---5--|--0--0-0-0-0-0-0-0-0-3----6--|


  E  S S S S S S S S Q    E     E  S S S S S S S S Q    E   
-----------------------------|-----------------------------|
-----------------------------|-----------------------------|
-----------------------------|-----------------------------|
--5--0-0-0-0-0-0-0-0-3----6--|--5--0-0-0-0-0-0-0-0-3----6--|


  E.  E.  E  E.  E.  E     E  S S S S S S S S Q    E   
------------------------|-----------------------------|
------------------------|-----------------------------|
--4-------4--5----------|-----------------------------|
------6----------6---5--|--0--0-0-0-0-0-0-0-0-3----6--|


  E  S S S S S S S S Q    E     E  S S S S S S S S Q    E   
-----------------------------|-----------------------------|
-----------------------------|-----------------------------|
-----------------------------|-----------------------------|
--5--0-0-0-0-0-0-0-0-3----6--|--5--0-0-0-0-0-0-0-0-3----6--|


  E.  E.  E  E.  E.  E     E  S S S S S S S S S S S S S S  
------------------------|---------------------------------|
------------------------|---------------------------------|
--4-------4--5----------|---------------------------------|
------6----------6---5--|--6--0-0-0-0-0-0-0-0-0-0-0-0-0-0-|


  S S S S S S S S S S Q    E     E  S S S S S S S S S S S S S S  
------------------------------|---------------------------------|
------------------------------|---------------------------------|
------------------------------|---------------------------------|
--0-0-0-0-0-0-0-0-0-0-2----3--|--6--0-0-0-0-0-0-0-0-0-0-0-0-0-0-|


  S S S S S S S S S S Q    E     E  S S S S S S S S S S S S S S  
------------------------------|---------------------------------|
------------------------------|---------------------------------|
------------------------------|---------------------------------|
--0-0-0-0-0-0-0-0-0-0-6----3--|--1--0-0-0-0-0-0-0-0-0-0-0-0-0-0-|


  S S S S S S S S S S Q    E     E  S S S S S S S S S S S S S S  
------------------------------|---------------------------------|
------------------------------|---------------------------------|
------------------------------|---------------------------------|
--0-0-0-0-0-0-0-0-0-0-2----3--|--6--0-0-0-0-0-0-0-0-0-0-0-0-0-0-|


  E.  E.  E  E.  E.  E     E  S S S S S S S S S S S S S S  
------------------------|---------------------------------|
------------------------|---------------------------------|
--4-------4--5----------|---------------------------------|
------6----------6---5--|--6--0-0-0-0-0-0-0-0-0-0-0-0-0-0-|


  S S S S S S S S S S Q    E     E  S S S S S S S S S S S S S S  
------------------------------|---------------------------------|
------------------------------|---------------------------------|
------------------------------|---------------------------------|
--0-0-0-0-0-0-0-0-0-0-2----3--|--6--0-0-0-0-0-0-0-0-0-0-0-0-0-0-|


  S S S S S S S S S S Q    E     E  S S S S S S S S S S S S S S  
------------------------------|---------------------------------|
------------------------------|---------------------------------|
------------------------------|---------------------------------|
--0-0-0-0-0-0-0-0-0-0-6----3--|--1--0-0-0-0-0-0-0-0-0-0-0-0-0-0-|


  S S S S S S S S S S Q    E     E  S S S S S S S S S S S S S S  
------------------------------|---------------------------------|
------------------------------|---------------------------------|
------------------------------|---------------------------------|
--0-0-0-0-0-0-0-0-0-0-2----3--|--6--0-0-0-0-0-0-0-0-0-0-0-0-0-0-|


  E.  E.  E  E.  E.  E     E  S S S S S S S S Q    E   
------------------------|-----------------------------|
------------------------|-----------------------------|
--4-------4--5----------|-----------------------------|
------6----------6---5--|--0--0-0-0-0-0-0-0-0-3----6--|


  E  S S S S S S S S Q    E     E  S S S S S S S S Q    E   
-----------------------------|-----------------------------|
-----------------------------|-----------------------------|
-----------------------------|-----------------------------|
--5--0-0-0-0-0-0-0-0-3----6--|--5--0-0-0-0-0-0-0-0-3----6--|


  E.  E.  E  E.  E.  E     E  S S S S S S S S Q    E   
------------------------|-----------------------------|
------------------------|-----------------------------|
--4-------4--5----------|-----------------------------|
------6----------6---5--|--0--0-0-0-0-0-0-0-0-3----6--|


  E  S S S S S S S S Q    E     E  S S S S S S S S Q    E   
-----------------------------|-----------------------------|
-----------------------------|-----------------------------|
-----------------------------|-----------------------------|
--5--0-0-0-0-0-0-0-0-3----6--|--5--0-0-0-0-0-0-0-0-3----6--|


  E.  E.  E  E.  E.  E     E.  E.  E  E.  E.  E     E.  E.  E  E.  E.  E   
------------------------|------------------------|------------------------|
------------------------|------------------------|------------------------|
--4-------4--5----------|--4-------4--5----------|--4-------4--5----------|
------6----------6---5--|------6----------6---5--|------6----------6---5--|


  E.  E.  E  E.  E.  E     W                   H        Q    Q     
------------------------|-------------------|---------------------|
------------------------|-------------------|---------------------|
--4-------4--5----------|-------------------|-----------5----6----|
------6----------6---5--|--0----------------|--0------------------|


  E  S S S S S S S S Q    E     E  S S S S S S S S Q    E   
-----------------------------|-----------------------------|
-----------------------------|-----------------------------|
-----------------------------|-----------------------------|
--0--0-0-0-0-0-0-0-0-1----4--|--3--0-0-0-0-0-0-0-0-1----4--|


  E  S S S S S S S S Q    E     E.  E.  E  E.  E.  E   
-----------------------------|------------------------|
-----------------------------|------------------------|
-----------------------------|--2-------2--3----------|
--0--0-0-0-0-0-0-0-0-1----4--|------4----------4---3--|


  E  S S S S S S S S Q    E     E  S S S S S S S S Q    E   
-----------------------------|-----------------------------|
-----------------------------|-----------------------------|
-----------------------------|-----------------------------|
--0--0-0-0-0-0-0-0-0-1----4--|--3--0-0-0-0-0-0-0-0-1----4--|


  E  S S S S S S S S Q    E     E.  E.  E  E.  E.  E  Q     
-----------------------------|-----------------------------|
-----------------------------|-----------------------------|
-----------------------------|--2-------2--3---------------|
--0--0-0-0-0-0-0-0-0-1----4--|------4----------4---3--1----|


  E  S S S S S S S S Q    E     E  S S S S S S S S Q    E   
-----------------------------|-----------------------------|
-----------------------------|-----------------------------|
-----------------------------|-----------------------------|
--0--0-0-0-0-0-0-0-0-1----4--|--3--0-0-0-0-0-0-0-0-1----4--|


  E  S S S S S S S S Q    E     E.  E.  E  E.  E.  E   
-----------------------------|------------------------|
-----------------------------|------------------------|
-----------------------------|--2-------2--3----------|
--0--0-0-0-0-0-0-0-0-1----4--|------4----------4---3--|


  E  S S S S S S S S Q    E     E  S S S S S S S S Q    E   
-----------------------------|-----------------------------|
-----------------------------|-----------------------------|
-----------------------------|-----------------------------|
--0--0-0-0-0-0-0-0-0-1----4--|--3--0-0-0-0-0-0-0-0-1----4--|


  E  S S S S S S S S Q    E     E.  E.  E  E.  E.  E  Q     
-----------------------------|-----------------------------|
-----------------------------|-----------------------------|
-----------------------------|--2-------2--3---------------|
--0--0-0-0-0-0-0-0-0-1----4--|------4----------4---3--1----|


  E  S S S S S S S S Q    E     E  S S S S S S S S Q    E   
-----------------------------|-----------------------------|
-----------------------------|-----------------------------|
-----------------------------|-----------------------------|
--2--2-2-2-2-2-2-2-2-3----0--|--2--2-2-2-2-2-2-2-2-3----0--|


  E  S S S S S S S S Q    E     E.  E.  E  E.  E.  E   
-----------------------------|------------------------|
-----------------------------|------------------------|
-----------------------------|--2---2---2------1------|
--2--2-2-2-2-2-2-2-2-3----0--|-------------3-------3--|


  E  S S S S S S S S Q    E     E  S S S S S S S S Q    E   
-----------------------------|-----------------------------|
-----------------------------|-----------------------------|
-----------------------------|-----------------------------|
--2--2-2-2-2-2-2-2-2-3----0--|--2--2-2-2-2-2-2-2-2-3----0--|


  E  S S S S S S S S Q    E     E.  E.  E  E.  E.  E   
-----------------------------|------------------------|
-----------------------------|------------------------|
-----------------------------|--2---2---2------1------|
--2--2-2-2-2-2-2-2-2-3----0--|-------------3-------3--|


  E  S S S S S S S S Q    E     E  S S S S S S S S Q    E   
-----------------------------|-----------------------------|
-----------------------------|-----------------------------|
-----------------------------|-----------------------------|
--0--0-0-0-0-0-0-0-0-3----6--|--5--0-0-0-0-0-0-0-0-3----6--|


  E  S S S S S S S S Q    E     E.  E.  E  E.  E.  E   
-----------------------------|------------------------|
-----------------------------|------------------------|
-----------------------------|--4-------4--5----------|
--5--0-0-0-0-0-0-0-0-3----6--|------6----------6---5--|


  E  S S S S S S S S Q    E     E  S S S S S S S S Q    E   
-----------------------------|-----------------------------|
-----------------------------|-----------------------------|
-----------------------------|-----------------------------|
--0--0-0-0-0-0-0-0-0-3----6--|--5--0-0-0-0-0-0-0-0-3----6--|


  E  S S S S S S S S Q    E     E.  E.  E  E.  E.  E     E.  E.  E  E.  E.  E   
-----------------------------|------------------------|------------------------|
-----------------------------|------------------------|------------------------|
-----------------------------|--4-------4--5----------|--4-------4--5----------|
--5--0-0-0-0-0-0-0-0-3----6--|------6----------6---5--|------6----------6---5--|


  E.  E.  E  E.  E.  E     E.  E.  E  E.  E.  E     W                 
------------------------|------------------------|-------------------|
------------------------|------------------------|-------------------|
--4-------4--5----------|--4-------4--5----------|-------------------|
------6----------6---5--|------6----------6---5--|--0----------------|


  W                   W                   W                 
-------------------|-------------------|-------------------|
-------------------|-------------------|-------------------|
-------------------|-------------------|-------------------|
--L----------------|--0----------------|--L----------------|


  Q    E  E  E  E  E  E     E  E  E  E  E  E  E  E     Q    E  E  E  E  E  E   
-------------------------|--------------------------|-------------------------|
-------------------------|--------------------------|-------------------------|
-------------------------|--------------------------|-------------------------|
--0----0--1--0--3--0--4--|--0--0--3--0--4--0--3--4--|--0----0--1--0--3--0--1--|


  E  E  E  E  E  E  E  E     Q    E  E  E  E  E  E     E  E  E  E  E  E  E  E   
--------------------------|-------------------------|--------------------------|
--------------------------|-------------------------|--------------------------|
--------------------------|-------------------------|--------------------------|
--0--0--0--0--0--0--0--0--|--0----0--1--0--3--0--4--|--0--0--3--0--4--0--3--4--|


  Q    E  E  E  E  E  E     E  E  E  E  E  E  E  E     Q    E  E  E  E  E  E   
-------------------------|--------------------------|-------------------------|
-------------------------|--------------------------|-------------------------|
-------------------------|--------------------------|-------------------------|
--0----0--1--0--3--0--1--|--0--0--0--0--0--0--0--0--|--0----0--1--0--3--0--4--|


  E  E  E  E  E  E  E  E     Q    E  E  E  E  E  E     E  E  E  E  E  E  E  E   
--------------------------|-------------------------|--------------------------|
--------------------------|-------------------------|--------------------------|
--------------------------|-------------------------|--------------------------|
--0--0--3--0--4--0--3--4--|--0----0--1--0--3--0--1--|--0--0--0--0--0--0--0--0--|


  Q    E  E  E  E  E  E     E  E  E  E  E  E  E  E     Q    E  E  E  E  E  E   
-------------------------|--------------------------|-------------------------|
-------------------------|--------------------------|-------------------------|
-------------------------|--------------------------|-------------------------|
--0----0--1--0--3--0--4--|--0--0--3--0--4--0--3--4--|--0----0--1--0--3--0--1--|


  E  E  E  E  E  E  E  E     Q    E  E  E  E  E  E     E  E  E  E  E  E  E  E   
--------------------------|-------------------------|--------------------------|
--------------------------|-------------------------|--------------------------|
--------------------------|-------------------------|--------------------------|
--0--0--0--0--0--0--0--0--|--0----0--1--0--3--0--4--|--0--0--3--0--4--0--3--4--|


  Q    E  E  E  E  E  E     E  E  E  E  E  E  E  E     Q    E  E  E  E  E  E   
-------------------------|--------------------------|-------------------------|
-------------------------|--------------------------|-------------------------|
-------------------------|--------------------------|-------------------------|
--0----0--1--0--3--0--1--|--0--0--0--0--0--0--0--0--|--0----0--1--0--3--0--4--|


  E  E  E  E  E  E  E  E     Q    E  E  E  E  E  E     E  E  E  E  E  E  E  E   
--------------------------|-------------------------|--------------------------|
--------------------------|-------------------------|--------------------------|
--------------------------|-------------------------|--------------------------|
--0--0--3--0--4--0--3--4--|--0----0--1--0--3--0--1--|--0--0--0--0--0--0--0--0--|


  W                   W                   W                   W                 
-------------------|-------------------|-------------------|-------------------|
-------------------|-------------------|-------------------|-------------------|
--2----------------|--L----------------|--L----------------|--L----------------|
-------------------|-------------------|-------------------|-------------------|


  E  S S S S S S E.  E.  E     E  S S S S S S E.  E.  E   
----------------------------|----------------------------|
-----------------6-------6--|-----------------6-------6--|
---------------------8------|--7------------------8------|
--0--0-0-0-0-0-0------------|-----0-0-0-0-0-0------------|


  E  S S S S S S E.  E.  E     E.  E.  E  E.  E.  E   
----------------------------|------------------------|
-----------------6-------6--|------------------------|
--7------------------8------|--7---7---7--8---5---8--|
-----0-0-0-0-0-0------------|------------------------|


  E  S S S S S S E.  E.  E     E  S S S S S S E.  E.  E   
----------------------------|----------------------------|
-----------------6-------6--|-----------------6-------6--|
---------------------8------|--7------------------8------|
--0--0-0-0-0-0-0------------|-----0-0-0-0-0-0------------|


  E  S S S S S S E.  E.  E     E.  E.  E  E.  E.  E   
----------------------------|------------------------|
-----------------6-------6--|------------------------|
--7------------------8------|--7---7---7--8---5---8--|
-----0-0-0-0-0-0------------|------------------------|


  E  S S S S S S E.  E.  E     E  S S S S S S E.  E.  E   
----------------------------|----------------------------|
-----------------6-------6--|-----------------6-------6--|
---------------------8------|--7------------------8------|
--0--0-0-0-0-0-0------------|-----0-0-0-0-0-0------------|


  E  S S S S S S E.  E.  E     E.  E.  E  E.  E.  E   
----------------------------|------------------------|
-----------------6-------6--|------------------------|
--7------------------8------|--7---7---7--8---5---8--|
-----0-0-0-0-0-0------------|------------------------|


  S S S S S S S S E.  E.  E     E  S S S S S S E.  E.  E   
-----------------------------|----------------------------|
------------------6-------6--|-----------------6-------6--|
----------------------8------|--7------------------8------|
--0-0-0-0-0-0-0-0------------|-----0-0-0-0-0-0------------|


  E  S S S S S S E.  E.  E     E.  E.  E  E.  E.  E   
----------------------------|------------------------|
-----------------6-------6--|------------------------|
--7------------------8------|--7---7---7--8---5---8--|
-----0-0-0-0-0-0------------|------------------------|


  S S S S S S S S E.  E.  E     E  S S S S S S E.  E.  E   
-----------------------------|----------------------------|
-----------------------------|----------------------------|
----------------------5------|--7------------------5------|
--0-0-0-0-0-0-0-0-6-------6--|-----0-0-0-0-0-0-6-------6--|


  E  S S S S S S E.  E.  E     E.  E.  E  E.  E.  E   
----------------------------|------------------------|
----------------------------|------------------------|
---------------------5------|------------------------|
--5--0-0-0-0-0-0-6-------6--|--3---3---3--6---3---6--|


  S S S S S S S S E.  E.  E     E  S S S S S S E.  E.  E   
-----------------------------|----------------------------|
-----------------------------|----------------------------|
----------------------5------|--7------------------5------|
--0-0-0-0-0-0-0-0-6-------6--|-----0-0-0-0-0-0-6-------6--|


  E  S S S S S S E.  E.  E     E.  E.  E  E.  E.  E   
----------------------------|------------------------|
----------------------------|------------------------|
---------------------5------|------------------------|
--5--0-0-0-0-0-0-6-------6--|--3---3---3--6---3---6--|


  S S S S S S S S E.  E.  E     E  S S S S S S E.  E.  E   
-----------------------------|----------------------------|
-----------------------------|----------------------------|
----------------------5------|--7------------------5------|
--0-0-0-0-0-0-0-0-6-------6--|-----0-0-0-0-0-0-6-------6--|


  E  S S S S S S E.  E.  E     E.  E.  E  E.  E.  E   
----------------------------|------------------------|
----------------------------|------------------------|
---------------------5------|------------------------|
--5--0-0-0-0-0-0-6-------6--|--3---3---3--6---3---6--|


  S S S S S S S S E.  E.  E     E  S S S S S S E.  E.  E   
-----------------------------|----------------------------|
-----------------------------|----------------------------|
----------------------5------|--7------------------5------|
--0-0-0-0-0-0-0-0-6-------6--|-----0-0-0-0-0-0-6-------6--|


  E  S S S S S S E.  E.  E     E.  E.  E  E.  E.  E     E.  E.  E  E.  E.  E   
----------------------------|------------------------|------------------------|
----------------------------|------------------------|------------------------|
---------------------5------|------------------------|------------------------|
--5--0-0-0-0-0-0-6-------6--|--3---3---3--6---3---6--|--3---3---3--6---3---6--|


  E.  E.  E  E.  E.  E     E.  E.  E  E.  E.  E     W                 
------------------------|------------------------|-------------------|
------------------------|------------------------|-------------------|
------------------------|------------------------|-------------------|
--3---3---3--6---3---6--|--3---3---3--6---3---6--|--0----------------|


  H        Q    Q       Q    H.             
---------------------|--------------------||
---------------------|--------------------||
-----------5----6----|--------------------||
--0------------------|--0-----------------||




Duration Legend
---------------
W - whole
H - half
Q - quarter
E - 8th
S - 16th
T - 32nd
X - 64th
. - note dotted
|-n-|  - n-tuplets


Tablature Legend
----------------
L - tied note
x - dead note
g - grace note
(n) - ghost note
> - accentuded note
NH - natural harmonic
AH - artificial harmonic
TH - tapped harmonic
SH - semi harmonic
PH - pitch harmonic
h - hammer on
p - pull off
b - bend
br - bendRelease
pb - preBend
pbr - preBendRelease
brb - bendReleaseBend
\n/ - tremolo bar dip
\n - tremolo bar dive
-/n - tremolo bar Release up
/n\ - tremolo bar inverted dip
/n - tremolo bar return
-\n - tremolo bar Release down
S - shift slide
s - legato slide
/ -  slide into from below or out of upwards
\ -  slide into from above or out of downwards
~ - vibrato
W - wide vibrato
tr - trill
TP - tremolo picking
T - tapping
S - slap
P - pop
< - fade in
^ - brush up
v - brush down

            
            
Suggest correction
Creating personal tab
Creating personal tab
You can edit any tab online and save it as your Personal.

You can edit, replace or remove any tab part or add personal notes – all changes will be seen only by you.

Personal tabs can be accessed anytime from any device, even offline.
Learn more »
Give kudos to tab author, rate the tab!
1 2 3 4 5
comments
print report bad tab
1 comment total.
0 reply
Jesusof36 144 Aug 20, 2008 05:52 PM

intro's a little off but the rest is pretty much spot on

guest
You may want to rate the tab now too:
select rating
Wanna post a correction for this tab? Suggest correction