Oops, an error
Loading. Please wait.

Man Against Machine tab

version 1
version 1

Whole song

by Evile
3,360 views 3 this week
no commentswrite comment
1 2 3 4 5
x 4
add to favorites
×
Save as Personal and add changes to this tab that will be seen only by you. Learn more ›
×
You can save this tab as Personal to edit and correct it or add notes. All changes will be seen only by you. Learn more »
launch autoscroll
font size
0
reset
how to read this tab
guitar tuner
edit
Autoscroll
slow
fast
+/-
esc
set tempo
stop
Author
-------------------------------------------------------------------------------
                             Man Against Machine - Evile
-------------------------------------------------------------------------------

Tabbed by: Mustaine
Email: kreator11@gmail.com


Tuning: E Flat


D#|---0-1---0-1---------0-----0-------0-1---0-1---------0-----0------------------|
A#|-4-----4-----4---3-4---3-4---4---4-----4-----4---3-4---3-4---4----------------|
F#|------------------------------------------------------------------------------|
C#|------------------------------------------------------------------------------|
G#|------------------------------------------------------------------------------|
D#|------------------------------------------------------------------------------|
                          repeat above bar 2x                                 

D#|---0-------------------0-----------0-------------------0----------------------|
A#|-2---4-2---4-2---0-2-----0-2---0-2---4-2---4-2---0-2-----0-2---0--------------|
F#|---------1-----0-----0-------0-----------1-----0-----0-------0----------------|
C#|------------------------------------------------------------------------------|
G#|------------------------------------------------------------------------------|
D#|------------------------------------------------------------------------------|
                          repeat above bar 2x                                 

D#|-------0-----------0-----------0--------------------0-------------------------|
A#|---4-0---4-0---4-0---4-0---0-4---------0--------------0-----------------------|
F#|-1-----------1-----------1-----------2---2--------2-----2---------------------|
C#|---------------------------------0-3-------3--0-3---------3-0-----------------|
G#|------------------------------------------------------------------------------|
D#|------------------------------------------------------------------------------|
                          repeat above bar 2x                                 

D#|------------------------------------------------------------------------------|
A#|---------1-----------1-----------0-----------0--------------------------------|
F#|-----3-----3-----3-----3---2-3-2---3---2-3-2---3------------------------------|
C#|---2---2-------2---2----------------------------------------------------------|
G#|-0-----------0-----------0-----------0----------------------------------------|
D#|------------------------------------------------------------------------------|
                          repeat above bar 2x                                 

D#|-0----------------------------------------------------------------------------|
A#|-0----------------------------------------------------------------------------|
F#|-2----------------------------------------------------------------------------|
C#|------------------------------------------------------------------------------|
G#|------------------------------------------------------------------------------|
D#|------------------------------------------------------------------------------|
                                                                              

D#|------------------------------------------------------------------------------|
A#|------------------------------------------------------------------------------|
F#|------------------------------------------------------------------------------|
C#|------------------------------------------------------------------------------|
G#|-7-----6-----7-----6-----8--8-------------------------------------------------|
D#|-5-----5-----5-----5-----6--6-------------------------------------------------|
                            repeat above bar 2x                               

D#|------------------------------------------------------------------------------|
A#|------------------------------------------------------------------------------|
F#|------------------------------------------------------------------------------|
C#|------------------------------------------------------------------------------|
G#|-7-----------------6----------------------7-----------------6------------8-8--|
D#|-5--5-5-5-5-5-5-5--5--5-5-5-5-5--5-5-5-5--5--5-5-5-5-5-5-5--5--5-5-5-5-5-6-6--|
                            repeat above bar 2x                               

D#|------------------------------------------------------------------------------|
A#|------------------------------------------------------------------------------|
F#|------------------------------------------------------------------------------|
C#|------------------------------------------------------------------------------|
G#|-7-------5h7---------------6-------5h6---------------7-------5h7--------------|
D#|-5--5-5--5----5-5--5-5-5---5--5-5--5----5-5--5-5-5---5--5-5--5----5-5--5-5-5--|
                                                                              

D#|------------------------------------------------------------------------------|
A#|------------------------------------------------------------------------------|
F#|------------------------------------------------------------------------------|
C#|------------------------------------------------------------------------------|
G#|-6-------5h6------8-8---------------------------------------------------------|
D#|-5--5-5--5---5-5--6-6---------------------------------------------------------|
                           repeat above 2 bars 2x                             

D#|------------------------------------------------------------------------------|
A#|------------------------------------------------------------------------------|
F#|-2------------------2------0h2----------------------------2-------------------|
C#|-2----0h2-3---3-----2----------1------------0h2-3---3-----2-------------------|
G#|-0--0-----1-0-1--0--0--0-0-------3-2-1--0-0-----1-0-1--0--0--0-0-0-0-0-0-0-0--|
D#|------------------------------------------------------------------------------|
                                                                              

D#|------------------------------------------------------------------------------|
A#|------------------------------------------------------------------------------|
F#|-------------------2------0h2----------------------------2--------------------|
C#|-----0h2-3---3-----2----------1------------0h2-3---3-----2--------------------|
G#|-0-0-----1-0-1--0--0--0-0-------3-2-1--0-0-----1-0-1--0--0--0-0-0-0-0-0-0-0---|
D#|------------------------------------------------------------------------------|
                                                                              

D#|------------------------------------------------------------------------------|
A#|------------------------------------------------------------------------------|
F#|------------2-------2------0h2---------------------2-------2------0h2---------|
C#|-----0h2-3--2----3--2----------1------------0h2-3--2----3--2----------1-3-2-1-|
G#|-0-0-----1--0--0-1--0--0-0-------3-2-1--0-0-----1--0--0-1--0--0-0-------------|
D#|------------------------------------------------------------------------------|
                             repeat above bar 2x                              

D#|------------------------------------------------------------------------------|
A#|------------------------------------------------------------------------------|
F#|------------------------------------------------------------------------------|
C#|-2---------------------------2---------------------------1--------------------|
G#|-0--0-0-0-0-0-0-0-0-0-0-0-0--0--0-0-0-0-0-0-0-0-0-0-0-0--0--0-0-0-0-0-0-0-0---|
D#|------------------------------------------------------------------------------|
                                                                              

D#|------------------------------------------------------------------------------|
A#|------------------------------------------------------------------------------|
F#|------------------------------------------------------------------------------|
C#|----------1---------------------------2---------------------------2-----------|
G#|-0-0-0-0--0--0-0-0-0-0-0-0-0-0-0-0-0--0--0-0-0-0-0-0-0-0-0-0-0-0--0--0-0-0-0--|
D#|------------------------------------------------------------------------------|
                                                                              

D#|------------------------------------------------------------------------------|
A#|------------------------------------------------------------------------------|
F#|----------------------------------------------3-3-----------------------------|
C#|------------------1---------------------------1-1-----5-5---------------------|
G#|-0-0-0-0-0-0-0-0--0--0-0-0-0-0-0-0-0-0-0-0-0----------3-3---------------------|
D#|--------------------------------------------------0-0-----0-0-----------------|
                          repeat above 3 bars 2x                              

D#|------------------------------------------------------------------------------|
A#|------------------------------------------------------------------------------|
F#|------------------------------------------------------------------------------|
C#|------------2-------2------------------------------2-------2------------------|
G#|-----0h2-3--2----3--2-----------------------0h2-3--2----3--2-----------5-4-3--|
D#|-0-0-----1--0--0-1--0--0-0-0-0-0-0-0-0--0-0-----1--0--0-1--0--0-0-0-0--3-2-1--|
                          repeat above bar 2x                                 

D#|------------------------------------------------------------------------------|
A#|------------------------------------------------------------------------------|
F#|------------------------------------------------------------------------------|
C#|-3-4-5------------------------------------------------------------------------|
G#|-1-2-3------------------------------------------------------------------------|
D#|------------------------------------------------------------------------------|
                                                                              

D#|------------------------------------------------------------------------------|
A#|------------------------------------------------------------------------------|
F#|------------------------------------------------------------------------------|
C#|-2---------------------------2---------------------------1--------------------|
G#|-0--0-0-0-0-0-0-0-0-0-0-0-0--0--0-0-0-0-0-0-0-0-0-0-0-0--0--0-0-0-0-0-0-0-0---|
D#|------------------------------------------------------------------------------|
                                                                              

D#|------------------------------------------------------------------------------|
A#|------------------------------------------------------------------------------|
F#|------------------------------------------------------------------------------|
C#|----------1---------------------------2---------------------------2-----------|
G#|-0-0-0-0--0--0-0-0-0-0-0-0-0-0-0-0-0--0--0-0-0-0-0-0-0-0-0-0-0-0--0--0-0-0-0--|
D#|------------------------------------------------------------------------------|
                                                                              

D#|------------------------------------------------------------------------------|
A#|------------------------------------------------------------------------------|
F#|----------------------------------------------3-3-----------------------------|
C#|------------------1---------------------------1-1-----5-5---------------------|
G#|-0-0-0-0-0-0-0-0--0--0-0-0-0-0-0-0-0-0-0-0-0----------3-3---------------------|
D#|--------------------------------------------------0-0-----0-0-----------------|
                              repeat above 3 bars 2x                          

D#|------------------------------------------------------------------------------|
A#|------------------------------------------------------------------------------|
F#|------------------------------------------------------------------------------|
C#|------------------------------------------------------------------------------|
G#|------------------------------------------------------------------------------|
D#|-0-0-0-0-0-0-0-0-0-0-0-0-0-0-0-0--0--0-0-0--0--0-0-0--0--0-0-0--0--0-0-0--0---|
                                                                              

D#|------------------------------------------------------------------------------|
A#|------------------------------------------------------------------------------|
F#|------------------------------------------------------------------------------|
C#|------------------------------------------------------------------------------|
G#|------------------------------------------------------------------------------|
D#|-0-0-0--0---------------------------------------------------------------------|
                            repeat above 2 bars 5x                            

D#|------------------------------------------------------------------------------|
A#|------------------------------------------------------------------------------|
F#|------------------------------------------------------------------------------|
C#|--------------------------------------------------------------------------1---|
G#|--------------------------------------------------------------------------1---|
D#|-0-0-0-0-0-0-0-0-0-0-0-0-0-0-0-0--0--0-0-0--0--0-0-0--0--0-0-0--0--0-0-0------|
                                                                              

D#|------------------------------------------------------------------------------|
A#|------------------------------------------------------------------------------|
F#|------------------------------------------------------------------------------|
C#|---------------------2-1---------------------------2-1------------------------|
G#|-8\------------------2-1------10\------------------2-1------11\---------------|
D#|-6\-0-0-0-0-0-0-0-0-------0-0--8\-0-0-0-0-0-0-0-0-------0-0--9\-0-0-0-0-0-0-0-|
                                                                              

D#|------------------------------------------------------------------------------|
A#|------------------------------------------------------------------------------|
F#|------------------------------------------------------------------------------|
C#|----2-1------8\------------------1--------------------------------------------|
G#|----2-1------6\------------------1--------------------------------------------|
D#|-0-------0-0----0-0-0-0-0-0-0-0-----------------------------------------------|
                              repeat above 2 bars 2x                          

D#|------------------------------------------------------------------------------|
A#|------------------------------------------------------------------------------|
F#|------------------------------------------------------------------------------|
C#|-1---------------3-4-5--------------------------------------------------------|
G#|-1----------4-3--1-2-3--------------------------------------------------------|
D#|---0-0-0-0--2-1---------------------------------------------------------------|
                                                                              

D#|------------------------------------------------------------------------------|
A#|------------------------------------------------------------------------------|
F#|------------------------------------------------------------------------------|
C#|-2---------------------------2---------------------------1--------------------|
G#|-0--0-0-0-0-0-0-0-0-0-0-0-0--0--0-0-0-0-0-0-0-0-0-0-0-0--0--0-0-0-0-0-0-0-0---|
D#|------------------------------------------------------------------------------|
                                                                              

D#|------------------------------------------------------------------------------|
A#|------------------------------------------------------------------------------|
F#|------------------------------------------------------------------------------|
C#|----------1---------------------------2---------------------------2-----------|
G#|-0-0-0-0--0--0-0-0-0-0-0-0-0-0-0-0-0--0--0-0-0-0-0-0-0-0-0-0-0-0--0--0-0-0-0--|
D#|------------------------------------------------------------------------------|
                                                                              

D#|------------------------------------------------------------------------------|
A#|------------------------------------------------------------------------------|
F#|------------------------------------------------------------------------------|
C#|------------------1---------------------------1-------------------------------|
G#|-0-0-0-0-0-0-0-0--0--0-0-0-0-0-0-0-0-0-0-0-0--0--0-0-0-0-0-0-0-0-0-0-0-0------|
D#|------------------------------------------------------------------------------|
                                                                              

D#|------------------------------------------------------------------------------|
A#|------------------------------------------------------------------------------|
F#|------------------------------------------------------------------------------|
C#|------------------------------------------------------------------------------|
G#|-----3h5--6-5---6-5-----------------------3h5--6-5---6-5-----------8-7-6------|
D#|-3-3------4-3-0-4-3--3-3-3-3-3-3-3-3--3-3------4-3-0-4-3--3-3-3-3--6-5-4------|
                            repeat above bar 2x                               

D#|------------------------------------------------------------------------------|
A#|------------------------------------------------------------------------------|
F#|------------------------------------------------------------------------------|
C#|------------------------------------------------------------------------------|
G#|-----5h7--8-7---8-7-----------------------5h7--8-7---8-7-----------10-9-8-----|
D#|-5-5------6-5-0-6-5--5-5-5-5-5-5-5-5--5-5------6-5-0-6-5--5-5-5-5---8-7-6-----|
                                                                              

D#|------------------------------------------------------------------------------|
A#|------------------------------------------------------------------------------|
F#|------------------------------------------------------------------------------|
C#|-----2h3--5-4---5-4-----------------------2h3--5-4---5-4-----------7-6-5------|
G#|-2-2------3-2-0-3-2--2-2-2-2-2-2-2-2--2-2------3-2-0-3-2--2-2-2-2--5-4-3------|
D#|------------------------------------------------------------------------------|
                                                                              

D#|------------------------------------------------------------------------------|
A#|------------------------------------------------------------------------------|
F#|------------------------------------------------------------------------------|
C#|------------2-------2------------------------------2-------2------------------|
G#|-----0h2-3--2----3--2-----------------------0h2-3--2----3--2-----------5-4-3--|
D#|-0-0-----1--0--0-1--0--0-0-0-0-0-0-0-0--0-0-----1--0--0-1--0--0-0-0-0--3-2-1--|
                              repeat above bar 2x                             

D#|------------------------------------------------------------------------------|
A#|------------------------------------------------------------------------------|
F#|------------------------------------------------------------------------------|
C#|-3-4-5--4-5-6--5-6-7----------------------------------------------------------|
G#|-1-2-3--2-3-4--3-4-5----------------------------------------------------------|
D#|------------------------------------------------------------------------------|
                                                                              

D#|------------------------------------------------------------------------------|
A#|------------------------------------------------------------------------------|
F#|------------------------------------------------------------------------------|
C#|-2---------------------------2---------------------------1--------------------|
G#|-0--0-0-0-0-0-0-0-0-0-0-0-0--0--0-0-0-0-0-0-0-0-0-0-0-0--0--0-0-0-0-0-0-0-0---|
D#|------------------------------------------------------------------------------|
                                                                              

D#|------------------------------------------------------------------------------|
A#|------------------------------------------------------------------------------|
F#|------------------------------------------------------------------------------|
C#|----------1---------------------------2---------------------------2-----------|
G#|-0-0-0-0--0--0-0-0-0-0-0-0-0-0-0-0-0--0--0-0-0-0-0-0-0-0-0-0-0-0--0--0-0-0-0--|
D#|------------------------------------------------------------------------------|
                                                                              

D#|------------------------------------------------------------------------------|
A#|------------------------------------------------------------------------------|
F#|----------------------------------------------3-3-----------------------------|
C#|------------------1---------------------------1-1-----5-5---------------------|
G#|-0-0-0-0-0-0-0-0--0--0-0-0-0-0-0-0-0-0-0-0-0----------3-3---------------------|
D#|--------------------------------------------------0-0-----0-0-----------------|
                               repeat above 3 bars 2x                         

D#|------------------------------------------------------------------------------|
A#|------------------------------------------------------------------------------|
F#|------------------------------------------------------------------------------|
C#|------------2-------2------------------------------2-------2------------------|
G#|-----0h2-3--2----3--2-----------------------0h2-3--2----3--2-----------5-4-3--|
D#|-0-0-----1--0--0-1--0--0-0-0-0-0-0-0-0--0-0-----1--0--0-1--0--0-0-0-0--3-2-1--|
                              repeat above bar 4x                             

D#|------------------------------------------------------------------------------|
A#|------------------------------------------------------------------------------|
F#|------------------------------------------------------------------------------|
C#|------------------------------------------------------------------------------|
G#|-5-4-3--5-4-3--5-4-3----------------------------------------------------------|
D#|-3-2-1--3-2-1--3-2-1----------------------------------------------------------|
                                                                              

D#|------------------------------------------------------------------------------|
A#|------------------------------------------------------------------------------|
F#|------------------------------------------------------------------------------|
C#|------2-----------------------------------------------------------------------|
G#|-5-3--2--6-5-3----------------------------------------------------------------|
D#|-3-1--0--4-3-1--0-0-0--0-0-0--------------------------------------------------|
                              fades out with this                             

D#|------------------------------------------------------------------------------|
A#|------------------------------------------------------------------------------|
F#|------------------------------------------------------------------------------|
C#|-----4------5--------------------6------7-------------------------------------|
G#|-6-5-2--6-5-3----------------7-6-4--8-7-5-------------------------------------|
D#|-4-3----4-3----0-0-0--0-0-0--5-4----6-5----0-0-0--0-0-0-----------------------|
                             variation at the end                             

Suggest correction
Creating personal tab
Creating personal tab
You can edit any tab online and save it as your Personal.

You can edit, replace or remove any tab part or add personal notes – all changes will be seen only by you.

Personal tabs can be accessed anytime from any device, even offline.
Learn more »
comments
print report bad tab
guest
You may want to rate the tab now too:
select rating
Wanna post a correction for this tab? Suggest correction