Oops, an error
Loading. Please wait.

Dont Wanna Lose tab

by Ex Hex
232 views 1 this week
no commentswrite comment
1 2 3 4 5
3 more votes to show rating
add to favorites
×
Save as Personal and add changes to this tab that will be seen only by you. Learn more ›
×
You can save this tab as Personal to edit and correct it or add notes. All changes will be seen only by you. Learn more »
launch autoscroll
font size
0
reset
how to read this tab
guitar tuner
edit
Autoscroll
slow
fast
+/-
esc
set tempo
stop
Author
EX HEX - DON'T WANNA LOSE

album version - RIPS
____________________________________
____________________________________

It does not sound like she hits all the strings
every time on the A, C, D chords.  For simplicity's
sake I usually don't strum the top two strings,
but sometimes she does.
____________________________________
____________________________________

chords:
   A     C     D    D5   C5                        G5   E5
e-(5)---(8)---(10)------------------------------------------
b-(5)---(8)---(10)------------------------------------------
g--6-----9-----11----------------------------------12-------
d--7-----10----12---12-----------------------------12---14--
a--7-----10----12---12---10-10-12-10-10-10-12-10---10---14--
e--5-----8-----10---10---8--8--8--8--8--8--8--8---------12--

   A*         C*          D*           D+
e----------------------------------------------------
b----------------------------------------------------
g----------------------------------------------------
d-------------------------------------------------12-
a----4-7-4-------7-10-7-------9-12-9-------9-12-9----
e-/5----------/8----------/10----------/10-----------
___________________________________

A C D C
A C D C

       A                      C              D C
If you listen close you might hear the sound
      A             C            D C
Well, I would never let you down
  A                  C            D C
I thought you were a man of action
A                                 C               D
Come on, baby, come on, give me a little reaction
___________________________________

D5 E5

C5              G5        D5
  I don’t wanna lose your love
C5                           G5       D5
It's in my hand, it's just a question of
C5                     G5      D5
  If you’re gonna stop messing around
           C5              G5     D5
You better hurry up, don’t let me down
___________________________________

A C D C

      A                      C             D C
Well, you keep telling me it won't be long
      A                    C                D C
Well, that's not right and that's not wrong
         A*                    C*               D* C*
Come on, talk to me, baby, and don't be so cold
     A*                 C*          D+             D5 E5
Your kingdom comes from actions and not from being bold
___________________________________

C5              G5        D5
  I don’t wanna lose your love
C5                           G5       D5
It's in my hand, it's just a question of
C5                  G5       D5
  If you gonna stop messing around
           C5              G5     D5
You better hurry up, don’t let me down
C5                 G5      D5
  My perception is growing dim
           C5              G5     D5
There's no way to lose, no way to win
C5        G5         D5
  I'm not gonna stay down
C5                   G5      D5
Goodbye to dark days that surround
___________________________________

lead:
e------8--8-8-7-7----------------------------
b----8------------10-10-8-8-7----------------
g-/9--------------------------7--------------
d-------------------------------7--7-10-9-7--
a--------------------------------------------
e--------------------------------------------

e------8--8-12-12-10-10-8-8-7-7-7b(8)r7-------------------------------
b----8----------------------------------7-7b(8)r7b(8)r7b(8)r7b(8)r7---
g-/9----------------------------------------------------------------9-
d---------------------------------------------------------------------
a---------------------------------------------------------------------
e---------------------------------------------------------------------

e------8--8-8-7-7---------------------------
b----8------------10-10-8-8-7---------------
g-/9--------------------------7-------------
d-------------------------------7--7-10-9-7-
a-------------------------------------------
e-------------------------------------------

e------8--12-12-10-10-8-8-7-7--------------------------------
b----8------------------------7------8-------10------12b(15)-
g-/9--------------------------9b(11)-10b(12)-12b(14)---------
d------------------------------------------------------------
a------------------------------------------------------------
e------------------------------------------------------------
___________________________________

C5              G5        D5
  I don’t wanna lose your love
C5                           G5       D5
It's in my hand, it's just a question of
C5                  G5       D5
  If you gonna stop messing around
           C5              G5     D5
You better hurry up, don’t let me down
C5                 G5      D5
  My perception is growing dim
           C5           G5        D5
There's no way to lose, no way to win
C5        G5         D5
  I'm not gonna stay down
C5                   G5      D5     A5
Goodbye to dark days that surround


_____________________________________________________________


| /   slide 
| h   hammer-on
| p   pull-off
| b   Bend
| r   Release
| ( ) Not strummed / Optional strum





            
            
Suggest correction
Creating personal tab
Creating personal tab
You can edit any tab online and save it as your Personal.

You can edit, replace or remove any tab part or add personal notes – all changes will be seen only by you.

Personal tabs can be accessed anytime from any device, even offline.
Learn more »
Give kudos to tab author, rate the tab!
1 2 3 4 5
comments
print report bad tab
guest
You may want to rate the tab now too:
select rating
Wanna post a correction for this tab? Suggest correction