Oops, an error
Loading. Please wait.

Everywhere chords

by Ex Hex
55 views 1 this week
no commentswrite comment
1 2 3 4 5
3 more votes to show rating
add to favorites
×
Save as Personal and add changes to this tab that will be seen only by you. Learn more ›
×
You can save this tab as Personal to edit and correct it or add notes. All changes will be seen only by you. Learn more »
launch autoscroll
font size
0
reset
transpose
0
reset
display chords
guitar tuner
edit
Autoscroll
slow
fast
+/-
esc
set tempo
stop
Strumming
There is no strumming pattern for this song yet. and get +5 IQ
EX HEX - Everywhere
Tabbed by: sophleg

This song is tuned a half-step down for the single version.
(e->d# B->A# G->F# D->C# A->G# E->D#)

But normally it is a FULL-STEP DOWN.

No Capo

Not 100% certain that the lyrics are right, but I know they're close!

Enjoy!

Play the D and A chords as barre chords.

[Intro]

F#  E  (x4)

[Verse 1]

F#                    E 
I’ll find you everywhere
F#                 
If you don’t exist, I don’t care
      B    A    F#    E    F#   E       
I’ll find you everywhere

F#                   E 
Waterfalls are in the air
F#                
If you don’t see them, I don’t care
             B    A    F#    E    F#   E    
There are waterfalls in the air

[Chorus 1]

D                    B
I saw you looking into the mortal mirror
D                     
I could see right through you
B
Even though you were right here

[First Solo]
 
D#|-14--11--9--6--9--6--4--2--4--2-----------2--4--2--------------------------|
A#|---------------------------------4--2--4----------4--2--4------------------|
F#|---------------------------------------------------------------------------|
C#|---------------------------------------------------------------------------|
G#|---------------------------------------------------------------------------|
D#|---------------------------------------------------------------------------|

[Verse 2]

F#            
You’re a crystal chandelier
F#
Your prisms ring so clear
  B    A    F#      E    F#     E    
Crystal chandelier

F#
I’ll find you everywhere
F#
If you don’t exist, I don’t care
       B   A    F#      E    F#    E    
I’ll find you everywhere

[Chorus]

D
And when I saw you
B
You were hanging out with your friends
D
I knew that it was over
B
But I didn’t know it had come to an end

[Second Solo]

D#|-14--11--9--6--9--6--4--2--4--2-----------2--4--2--------------------------|
A#|---------------------------------4--2--4----------4--2--4------------------|
F#|---------------------------------------------------------------------------|
C#|---------------------------------------------------------------------------|
G#|---------------------------------------------------------------------------|
D#|---------------------------------------------------------------------------|

D#|-14--11--9--6--9--6--4--2--4--2-----------4h6-6-4-2------------------------|
A#|---------------------------------4--2--4-----------------------------------|
F#|---------------------------------------------------------------------------|
C#|---------------------------------------------------------------------------|
G#|---------------------------------------------------------------------------|
D#|---------------------------------------------------------------------------|

F#   E   F#  E



************************************

| h  Hammer-on

************************************

            
            
Suggest correction
Creating personal tab
Creating personal tab
You can edit any tab online and save it as your Personal.

You can edit, replace or remove any tab part or add personal notes – all changes will be seen only by you.

Personal tabs can be accessed anytime from any device, even offline.
Learn more »
Give kudos to tab author, rate the tab!
1 2 3 4 5
comments
print report bad tab
guest
You may want to rate the tab now too:
select rating
Wanna post a correction for this tab? Suggest correction