Oops, an error
Loading. Please wait.

Kickstarts Tab

version 1
version 1

Whole song

Interactive

15,136 views 1 this week
no commentswrite comment
1 2 3 4 5
excellent!
x 3
add to favorites
launch autoscroll
font size
0
reset
how to read this tab
guitar tuner
Autoscroll
slow
fast
+/-
esc
set tempo
stop
Help us to improve Ultimate-Guitar.com Take our survey!
×
Author
Difficulty
intermediate
First tab - Any corrections, comments / constructive criticism welcome.
[Listen to song for timing.]

Synth [Repeat x4]
e|-------------8------------------------------------------------------------|
B|--10-10-10-6---10---6-8-10-10---------------------------------------------|
G|--------------------------------------------------------------------------|
D|--------------------------------------------------------------------------|
A|--------------------------------------------------------------------------|
E|--------------------------------------------------------------------------|

Verse 1 - "You want me to come over.."
Bass Synth 1 (Power Chords Optional) [Continuous Strumming / Picking]
e|--------------------------------------------------------------------------|
B|--------------------------------------------------------------------------|
G|-10-10-10-10--------------------------------------------------------------|
D|-10-10-10-10--------------------------------------------------------------|
A|--8--8--8--8--------------------------------------------------------------|
E|--------------------------------------------------------------------------|

Pre-Chorus - "Start to think it could be.."
Bass Synth 2
e|--------------------------------------------------------------------------|
B|--------------------------------------------------------------------------|
G|--7----------5----------3-------------------------------------------------|
D|--7----------5----------3-------------------------------------------------|
A|--5--[x 16]--3--[x 16]--1--[x 32]--(I think)------------------------------|
E|--------------------------------------------------------------------------|

Chorus - "And the love kickstarts again.." [x2]
Heavy Bass Synth
e|--------------------------------------------------------------------------|
B|--------------------------------------------------------------------------|
G|--------------------------------------------------------------------------|
D|--3---------5---------8---------------------------------------------------|
A|--3---------5---------8---------------------------------------------------|
E|--1--[x 8]--3--[x 8]--6--[x 16]-------------------------------------------|

Order:
Intro      - Synth [Repeat x4]
Verse 1    - Bass Synth 1 - "You want me to come over.."
Pre-Chorus - Bass Synth 2 - "Start to think it could be.."
Chorus     - Heavy Bass Synth [x2] - "And the love kickstarts again.."
Verse 2a   - Heavy Bass Synth [x2] - "It's the same old you.."
Verse 2b   - Bass Synth 1 - "You want me to come over.."
Pre-Chorus - Bass Synth 2 [x2] - "Start to think it could be.."
Chorus     - Heavy Bass Synth [x2] - "And the love kickstarts again.."
Verse 3    - Heavy Bass Synth [x2] - "It's the same old you.."
Pre-Chorus - Bass Synth 2 - "Start to think it could be.."
Suggest correction
Give kudos to tab author, rate the tab!
1 2 3 4 5
comments
print report bad tab
guest
You may want to rate the tab now too:
select rating
Please do not post tabs as comments. Select "correction" instead!