Oops, an error
Loading. Please wait.

Snakeskin Tab

408 views 1 this week
no commentswrite comment
1 2 3 4 5
please rate
add to favorites
launch autoscroll
font size
0
reset
how to read this tab
guitar tuner
Autoscroll
slow
fast
+/-
esc
set tempo
stop
Help us to improve Ultimate-Guitar.com Take our survey!
×
Author
Difficulty
-------------------------------------------------------------------------------
                             Snakeskin - Example
-------------------------------------------------------------------------------
Tabbed by: Mark Glozier

Tuning: EADGBE

e|-----------------------------------------------------------------------------|
B|-----------------------------------------------------------------------------|
G|---------9------------------------9-----------------5------------------------|
D|------9-----9------------------9-----9-----------5-----5----------5---7------|
A|--7-------------------------0----------------3--------------------3---5------|
E|-----------------------------------------------------------------------------|


  Solo guitar starts:

e|------------12----------------------------12-------------------------------|
B|---------------12----13-12-------------------12-----13-12\10\8--8-10-------|
G|---12-12-14-------12-------------12-12-14-------12-------------------9-----|
D|---------------------------------------------------------------------------|
A|---------------------------------------------------------------------------|
E|---------------------------------------------------------------------------|

Near the end of the song, he plays around with the E minor pentatonic scale. He plays 
around the 9th fret of the G string, so just improvise using that as it isn't clear enough 
to work out exactly from the music video.
************************************

| /   slide up
| \   slide down
| h   hammer-on
| p   pull-off
| ~   vibrato
| +   harmonic
| x   Mute note
| b   Bend
| pb  Pre-bend
| br  Bend release
| pbr Pre-bend release
| brb Bend release bend

************************************
Suggest correction
Give kudos to tab author, rate the tab!
1 2 3 4 5
comments
print report bad tab
guest
You may want to rate the tab now too:
select rating
Wanna post a correction for this tab? Suggest correction