Oops, an error
Loading. Please wait.

The Evolution Of Man Tab

685 views 1 this week
no commentswrite comment
1 2 3 4 5
2 more votes to show rating
add to favorites
launch autoscroll
font size
0
reset
how to read this tab
guitar tuner
Autoscroll
slow
fast
+/-
esc
set tempo
stop
Help us to improve Ultimate-Guitar.com Take our survey!
×
Author
Difficulty
novice
-------------------------------------------------------------------------------
                             The Evolution of Man - Example
-------------------------------------------------------------------------------
Tabbed by: Jgloz
E-mail: 

Tuning:EADGBE

Main Riff

e|--14-13---11-----or------14-13----16---------------------------------------|
B|--------14---------------------14------------------------------------------|
G|---------------------------------------------------------------------------|
D|---------------------------------------------------------------------------|
A|---------------------------------------------------------------------------|
E|---------------------------------------------------------------------------|



Intro riff/verse riff

e|--------------------------------------------------------------------------------------|
B|--------------------------------------------------------------------------------------|
G|--------------------------------------------------------------------------------------|
D|---4-6-8b-8-8h9p8--4-6-8b-8-8h9p8-------8----8----8---8---------4--4--4--4------------|
A|-------------------------------------6----6----6---6---6h7p6--2--2--2--2--2h3p2-------|
E|--------------------------------------------------------------------------------------|



Chorus riff

e|---------------------------------------------------------------------------|
B|---------------------------------------------------------------------------|
G|---------------------------------------------------------------------------|
D|----4-6-8b-8-8h9p8-------4-6-8b-8-8h9p8------------------------------------|
A|-----------------------------------------6-8-9-9-9h10p9--6-8-9-9-9h10p9----|
E|---------------------------------------------------------------------------|
Suggest correction
Give kudos to tab author, rate the tab!
1 2 3 4 5
comments
print report bad tab
guest
You may want to rate the tab now too:
select rating
Wanna post a correction for this tab? Suggest correction