Oops, an error
Loading. Please wait.

The Jokes On You Tab

1,491 views 3 this week
no commentswrite comment
1 2 3 4 5
2 more votes to show rating
add to favorites
launch autoscroll
font size
0
reset
how to read this tab
guitar tuner
Autoscroll
slow
fast
+/-
esc
set tempo
stop
Help us to improve Ultimate-Guitar.com Take our survey!
×
Author
Author/Artist: Excel
Title: The Joke's on You
Album: Split Image
Transcribed by: Boles
Email: boles2012@yahoo.com

Tuning: 1/2 step down Eb. Play each riff once unless otherwise
noted (x4).


Intro
----------------------------------------------------------------|
----------------------------------------------------------------|
----------------------------------------------------------------|
2---------------9-----------------------------------------------|
2---------------7---------------5---------------7-/-8-\-7-------|
0-------------------------------3---------------5-/-6-\-5-------|

----------------------------------------------------------------|
----------------------------------------------------------------|
----------------------------------------------------------------|
2---------------9---------------5-------5-------7-/-8-\-7-------|
2---------------7---------------3-------3-------5-/-6-\-5-------|
0---------------------------------------------------------------|

----------------------------------------------------------------|
----------------------------------------------------------------|
----------------------------------------------------------------|
2---------------9-----------------------------------------------|
2---------------7---------------5-------5-------7-/-8-\-7-------|
0----------------------------0--3-------3-------5-/-6-\-5-------|
                             .
----------------------------------------------------------------|
----------------------------------------------------------------|
----------------------------------------------------------------|
2---------------9-----------------------------------------------|
2---------------7---------------5-------12\-----3-/-5-\-3-------|
0----------------------------0--3---------------1-/-3-\-1-------|
                             .
----------------------------------------------------------------|
----------------------------------------------------------------|
----------------------------------------------------------------|
2---------------9-----------------------------------------------|
2---------------7---------------5-------5-------7-/-8-\-7-------|
0----------------------------0--3-------3-------5-/-6-\-5-------|
                             .
----------------------------------------------------------------|
----------------------------------------------------------------|
----------------------------------------------------------------|
2---------------9---------------5-------5-------7-/-8-\-7-------|
2---------------7---------------3-------3-------5-/-6-\-5-------|
0---------------------------------------------------------------|

----------------------------------------------------------------|
----------------------------------------------------------------|
----------------------------------------------------------------|
2---------------9-----------------------------------------------|
2---------------7---------------5-------5-------7-/-8-\-7-------|
0----------------------------0--3-------3-------5-/-6-\-5-------|
                             .
----------------------------------------------------------------|
----------------------------------------------------------------|
----------------------------------------------------------------|
2---------------9-----------------------------------------------|
2---------------7---------------5-------12\-----3-/-5-\-3-------|
0----------------------------0--3---------------1-/-3-\-1-------|
                             .

--------------------------------|
--------------------------------|
----------------4-----4-3-------|    x8
2-------4/5\4---2-----2-1---3---|
0---0-0-2/3\2-------0-------1---|
    . .             .
--------------------------------|
--------------------------------|
--------------------------------|    x8
----------------4-4---4-3-------|
2-2-2-2-5-5-5-5-2-2---2-1---3---|
0-0-0-0-3-3-3-3-------------1---|

----------------------------------------------------------------|
----------------------------------------------------------------|
----------------------------------------------------------------|  x4
9-9-9-9-9-9-9-9-5-5-5-5-5-5-5-5-4-4-4-4-4-4-4-4-----5-------5---|
7-7-7-7-7-7-7-7-3-3-3-3-3-3-3-3-2-2-2-2-2-2-2-2-----5-------5---|
------------------------------------------------0-0-3---0-0-3---|
                                                . .     . .

--------------------------------|
--------------------------------|
--------------------------------|    x4
----------------4-4---4-3-------|
2-2-2-2-5-5-5-5-2-2---2-1---3---|
0-0-0-0-3-3-3-3-------------1---|

----------------------------------------------------------------|
----------------------------------------------------------------|
----------------------------------------------------------------|  x4
9-9-9-9-9-9-9-9-5-5-5-5-5-5-5-5-4-4-4-4-4-4-4-4-----5-------5---|
7-7-7-7-7-7-7-7-3-3-3-3-3-3-3-3-2-2-2-2-2-2-2-2-----5-------5---|
------------------------------------------------0-0-3---0-0-3---|
                                                . .     . .

----------------------------------------------------------------|
----------------------------------------------------------------|
----------------------------------------------------------------|
----5-------5---2-----------------------------------------------|
----5-------5---2-----------------------------------------------|
0-0-3---0-0-3---0-----------------------------------------------|
. .     . .
--------------------------------|
--------------------------------|
--------------------------------|
------------------3-3-3-3-3-3-3-|
-15\--------------1-1-1-1-1-1-1-|
--------------------------------|
                    . . . . . .

--------------------------------|
--------------------------------|
--------------------------------| x4
7-9-------------4-3-------------|
5-7-----4-5-----2-1-1-1-1-1-1-1-|
----0-0-2-3-0-0-----------------|
    . .     . .     . . . . . .
--------------------------------|
--------------------------------|
--------------------------------| x4
----------------4-3-------------|
2-3-----4-5-----2-1-------------|
0-1-0-0-2-3-0-0-----0-0-0-0-0-0-|
    . .     . .     . . . . . .
--------------------------------|
--------------------------------|
--------------------------------|
7-9-------------4-3-------------|
5-7-----4-5-----2-1-1-1-1-1-1-1-|
----0-0-2-3-0-0-----------------|
    . .     . .     . . . . . .

--------------------------------|
--------------------------------|
--------------------------------|
7-9-------------4-3-------------|
5-7-----4-5-----2-1-------------|
----0-0-2-3-0-0-----------------|
    . .     . .

--------------------------------|
--------------------------------|
--------------------------------|
7-9-------------4-3-------------|
5-7-----4-5-----2-1-1-1-1-1-1-1-|
----0-0-2-3-0-0-----------------|
    . .     . .     . . . . . .

--------------------------------|
--------------------------------|
--------------------------------|
7-9-------------4-3-------------|
5-7-----4-5-----2-1-------------|
----0-0-2-3-0-0-----------------|
    . .     . .

End
Suggest correction
Give kudos to tab author, rate the tab!
1 2 3 4 5
comments
print report bad tab
guest
You may want to rate the tab now too:
select rating
Wanna post a correction for this tab? Suggest correction