Oops, an error
Loading. Please wait.

Vacant Grave Tab

711 views 1 this week
no commentswrite comment
1 2 3 4 5
please rate
add to favorites
launch autoscroll
font size
0
reset
how to read this tab
guitar tuner
Autoscroll
slow
fast
+/-
esc
set tempo
stop
Help us to improve Ultimate-Guitar.com Take our survey!
×
Author
Band: Exhumed 
Album: Slaughtercult 
Song: Vacant Grave 


. - palm mute           / - slide up to 
\ - slide down to       x – Staccato 
h - hammer on           p - pull off 
, - slight palm mute    () - ghost note, sustained note 
" - tremolo note        <> - Trill 
L – left channel only   R – right channel only 
* - see comment 

Suffixes for bend 
f - full bend       h - half bend 
q - quarter bend    t - tap bend 
^ - Hold bend       r - release bend 
~ - vibrato bend 

Suffixes for harmonic 
ph - pinched harmonic   n – natural/artificial harmonic 


Tuning B E A D F# B 

3 hi-hat intro 

Intro I (0:01) play 4 times 
 [Intro]                  [1, 3]                [2, 4] 
|-----------|--------------------|--------------------| 
|-----------|--------------------|--------------------| 
|-----------|--------------------|--------------------| 
|-----------|--------------------|------------------8-| 
|-----------|-3-------4---2----8-|-3-------4---2----6-| 
|-3-4-6//\\-|-1---1-1-2-1-0--0-6-|-1---1-1-2-1-0--0-6-| 
                  . .   .    .         . .   .    . 

Drums (0:13) 

Intro II (0:15) play 4 times 
              [1, 3]                [2, 4] 
|--------------------|--------------------| 
|--------------------|--------------------| 
|--------------------|--------------------| 
|--------------------|------------------8-| 
|-3-------4---2----8-|-3-------4---2----6-| 
|-1---1-1-2-1-0--0-6-|-1---1-1-2-1-0--0-6-| 
      . .   .    .         . .   .    . 

Drums (0:27) 

Riff 1 (0:29) play 4 times 
|---------------------------------------------------------| 
|---------------------------------------------------------| 
|---------------------------------------------------------| 
|----4/5----5/6----4/5------------------------------------| 
|-3--2/3-3--3/4-3--2/3-3--4-------------------------------| 
|-1------1------1------1--2-------------------------------| 

Bass solo (0:28) 

Riff 2 (0:38) play 4 times 
|---------------------------------------------------------| 
|---------------------------------------------------------| 
|---------------------------------------------------------| 
|---------------------------------------------------------| 
|---------------------------------------------------------| 
|-2"--1"--2"--1"--2"--1"--2"--5"--------------------------| 
  .   .   .   .   .   .   .   . 

Riff 3 (0:54) play twice 
|-----------------------------------| 
|-----------------------------------| 
|-----------------------------------| 
|----5-6----------------------------| 
|-3--3-4-7--4h5p4h5p4-3--3-6-7--4---| 
|-1------5------------1--1-4-5--2---| 

Riff 2 x 1/2 (1:01) 
Riff 3 x 1 (1:09) 

Riff 4 (1:18) play twice 
|----------------------------| 
|----------------------------| 
|----------------------------| 
|--------6--5/6\5-4/5\4------| 
|-3-3-3--4--3/4\3-2/3\2-3/4--| 
|-1-1-1-----------------1/2--| 


Fill 1 (1:21) play twice 
|-------------------| 
|-------------------| 
|-------------------| 
|-------------------| gtr 1 
|-2/4-2/4-2/4-2/4---| 
|-0/2-0/2-0/2-0/2---| 

|-------------------| 
|-------------------| 
|-------------------| 
|-------------------| gtr 2 
|-2---2---2---2-4---| 
|-0---0---0---0-2---| 
  x   x   x    


Riff 5a (1:26) play twice 
|---------------------------------------| 
|---------------------------------------| 
|---------------------------------------| 
|------4---3---------------4---6-----3--| 
|-2----2-3-1----------2----2-3-4-5-3-1--| 
|-0--0---1----222-222-0--0---1---3-1----| 
     .        ... ...    . 

Riff 5b (1:33) harmony probably not accurate 
|-----------------------------------| 
|-----------------------------------| 
|----2-1-1---------------2-1-1------| 
|-3-------------------3---------3---| gtr 1 
|-----------------------------------| 
|-----------------------------------| 

|-----------------------------------| 
|----3-2-2---------------3-2-2------| 
|-2-------------------2---------2---| 
|-----------------------------------| gtr 2 
|-----------------------------------| 
|-----------------------------------| 

|-----------------------------------| 
|-----------------------------------| 
|-----------------------------------| 
|----5-6----------------------------| gtr 3 
|-3--3-4-7--4h5p4h5p4-3--3-6-7--4---| 
|-1------5------------1--1-4-5--2---| 


Solo begins (1:37) 
Riff 3 x 3/4 (1:37) 

Riff 5a x 1/2 (1:45) 
Riff 2 x 1/2 (1:50) 
Riff 3 x 2 (1:58) 
Intro II x 1 (2:14) 
Drums (2:26) 

End (2:27) 
|------------------------| 
|------------------------| 
|------------------------| 
|------------------8-----| 
|-3-------4---2----6--3--| 
|-1---1-1-2-1-0--0-6--1--| 
      . .   .    .




Suggest correction
What's this?
You can suggest a correction to this tab. Community and Mods will review your correction and vote to approve or reject it.
comments
We did not receive enough feedback on this tab! Please rate:
print report bad tab
1 2 3 4 5
guest
You may want to rate the tab now too:
select rating
Please do not post tabs as comments. Select "correction" instead!