Oops, an error
Loading. Please wait.

True Tab

version 1
version 1

Solo

Whole song

1,044 views 1 this week
no commentswrite comment
1 2 3 4 5
3 more votes to show rating
add to favorites
launch autoscroll
font size
0
reset
how to read this tab
guitar tuner
Autoscroll
slow
fast
+/-
esc
set tempo
stop
Help us to improve Ultimate-Guitar.com Take our survey!
×
Author
Difficulty
Tuning
intermediate
D A D G B E
Hello this is the solo for a new single - "True" by Exist Trace

The song is on Drop D

Omi plays the first part alone

e|-14----14b(15)-14----14b(15)-14-----14b(15)----12-|
B|----12------------12------------12----------14----|
G|--------------------------------------------------|
D|--------------------------------------------------|
A|--------------------------------------------------|
D|--------------------------------------------------|

Then she plays

e|-------14----12-----------15---14------14p0-14p0--12p0-12p0-------------------------|
B|-12-12----12----12--12-12---12----12-------------------------14p0-14p0--15p0-15p0---|
G|------------------------------------------------------------------------------------|
D|------------------------------------------------------------------------------------|
A|------------------------------------------------------------------------------------|
D|------------------------------------------------------------------------------------|


*note*{There's a harmony which Miko and Omi play together}
              {Miko plays this part} 

e|--------7---7/9-------|--17----15-14--------------|
B|------------------10--|--------------14-----------|
G|--/11-----------------|---------------------14----|
D|----------------------|---------------------------|
A|----------------------|---------------------------|
D|----------------------|---------------------------|

(And Omi plays this part)
(When you're listening on headphones She plays the right guitar)

e|------------------------------|
B|--/15--14---------15--14--17--|
G|----------14---11-------------|
D|------------------------------|
A|------------------------------|
D|------------------------------|

And then Miko plays

e|-----------------------------------------------|
B|------------/10--10-10--/12--12-12--/14--14-14-|
G|-/11--11-11------------------------------------|
D|-----------------------------------------------|
A|-----------------------------------------------|
D|-----------------------------------------------|

And the lead guitar (Omi) Plays this part 
(You can hear this part much better on headphones)

e|--------------------------------------------------|
B|-12-14-15--12-14-15------14-15-17--14-15-17-------|
G|--------------------------------------------------|
D|--------------------------------------------------|
A|--------------------------------------------------|
D|--------------------------------------------------|



e|--------------------------|-------------------------|-----|
B|-14h15-14h15--15h17-15h17-|-15h17h19--Play-4-times--|-19b-|
G|--------------------------|-------------------------|-----|
D|--------------------------|-------------------------|-----|
A|--------------------------|-------------------------|-----|
D|--------------------------|-------------------------|-----|

So this is it.
Have fun : ).
Suggest correction
Give kudos to tab author, rate the tab!
1 2 3 4 5
comments
print report bad tab
guest
You may want to rate the tab now too:
select rating
Wanna post a correction for this tab? Suggest correction