Oops, an error
Loading. Please wait.

Fly tab

16 views 1 this week
no commentswrite comment
1 2 3 4 5
3 more votes to show rating
add to favorites
×
Save as Personal and add changes to this tab that will be seen only by you. Learn more ›
×
You can save this tab as Personal to edit and correct it or add notes. All changes will be seen only by you. Learn more »
launch autoscroll
font size
0
reset
how to read this tab
guitar tuner
edit
Autoscroll
slow
fast
+/-
esc
set tempo
stop
BPM 200

[Pre-Intro - Distorted Chords]
C#|8-----------0-----0----------8---------------------------------------------|
G#|6-------------0---0-------------(glitch)-----------------------------------|
E |7---------------2-2--------------------------------------------------------|
B |0-----------------3--------------------------------------------------------|
F#|0-----------------0--------------------------------------------------------|
B |---------------------------------------------------------------------------|

Intro]
C#|---------------------------------------------------------------------------|
G#|---------------------------------------------------------------------------|
E |---------------------------------------------------------------------------|
B |---------------------------------------------------------------------------|
F#|----------------------6-6-6-6--------------------3-5-6-5-3-5---------------|
B |0-0-1-0--0-1-0--0-1-0----------0-0-1-0--0-1-0--0---------------------------|

C#|---------------------------------------------------------------------------|
G#|---------------------------------------------------------------------------|
E |---------------------------------------------------------------------------|
B |---------------------------------------------------------------------------|
F#|----------------------6-6-6-6-1-1-1-1-1-1-1-1-3-3-3-3-3-3-3-3--------------|
B |0-0-1-0--0-1-0--0-1-0------------------------------------------------------|

[Verse 1]
Sort of palm muted (listen for the pattern):
C#|---------------------------------------------------------------------------|
G#|---------------------------------------------------------------------------|
E |---------------------------------------------------------------------------|
B |---------------------------------------------------------------------------|
F#|1-0--/5-0-0---0-1-0---0-0-0-1-0--/5-0-0---0-3-5-6-5-3-5--------------------|
B |1-0-----0-0---0-1-0---0-0-0-1-0-----0-0---0--------------------------------|

C#|---------------------------------------------------------------------------|
G#|---------------------------------------------------------------------------|
E |---------------------------------------------------------------------------|
B |---------------------------------------------------------------------------|
F#|1-0--/5-0-0---0-1-0---0-0-0-1-0--/5-0-0---0-3-5----------------------------|
B |1-0-----0-0---0-1-0---0-0-0-1-0-----0-0---0--------------------------------|

Not palm muted:
C#|---------------------------------------------------------------------------|
G#|---------------------------------------------------------------------------|
E |------7---------------5-5-5-5-------7--------------------------------------|
B |1-0---7-0-0---0-1-0---5-5-5-5-1-0---5-0-0----------------------------------|
F#|1-0---5-0-0---0-1-0---3-3-3-3-1-0---5-0-0---0-3-5-6-5-3-5------------------|
B |1-0-----0-0---0-1-0-----------1-0-----0-0---0------------------------------|

C#|---------------------------------------------------------------------------|
G#|---------------------------------------------------------------------------|
E |------7---------------3-3-3-3-------7--------------------------------------|
B |1-0---7-0-0---0-1-0---3-3-3-3-1-0---5-0-0----------------------------------|
F#|1-0---5-0-0---0-1-0---1-1-1-1-1-0---5-0-0---0-3-5-6-5-3-5------------------|
B |1-0-----0-0---0-1-0-----------1-0-----0-0---0------------------------------|

[Chorus] 
Rhyhtm guitars:
C#|---------------------------------------------------------------------------|
G#|---------------------------------------------------------------------------|
E |9--9--9-9--9--9-9--9--9-0---0---0--7--7--7-7--7--7-0--0--0-7--7--7---------|
B |9--9--9-9--9--9-9--9--9-9---9---9--0--0--0-0--0--0-2--2--2-7--7--7---------|
F#|7--7--7-7--7--7-7--7--7/10--10--10\5--5--5-5--5--5-3--3--3-5--5--5---------|
B |-----------------------------------0--0--0-0--0--0-------------------------| (2x)

Lead:
C#|12---12-14----14-15----15-14--14----10--10----10----12----12-14--14---|
G#|--12-------12-------12------12--12----12----12--12----12-------12--12-|
E |----------------------------------------------------------------------|
B |----------------------------------------------------------------------|
F#|----------------------------------------------------------------------|
B |----------------------------------------------------------------------|

C#|12---12-14----14-15----15-14--14----10--10----10----17----17-15--15-|
G#|--12-------12-------12------12--12----12----12--12----15-------15---|
E |--------------------------------------------------------------------|
B |--------------------------------------------------------------------|
F#|--------------------------------------------------------------------|
B |--------------------------------------------------------------------|

[Post-Chorus]
C#|8-----------0-----0----------8---------------------------------------------|
G#|6-------------0---0------------6-------------------------------------------|
E |7---------------2-2--------------7-----------------------------------------|
B |0-----------------3--------------------------------------------------------|
F#|0-----------------0--------------------------------------------------------|
B |---------------------------------------------------------------------------|

[Verse 2]
Sort of palm muted (listen for the pattern):
C#|---------------------------------------------------------------------------|
G#|---------------------------------------------------------------------------|
E |---------------------------------------------------------------------------|
B |---------------------------------------------------------------------------|
F#|1-0--/5-0-0---0-1-0---0-0-0-1-0--/5-0-0---0-3-5-6-5-3-5--------------------|
B |1-0-----0-0---0-1-0---0-0-0-1-0-----0-0---0--------------------------------|

C#|---------------------------------------------------------------------------|
G#|---------------------------------------------------------------------------|
E |---------------------------------------------------------------------------|
B |---------------------------------------------------------------------------|
F#|1-0--/5-0-0---0-1-0---0-0-0-1-0--/5-0-0---0-3-5-6-5-3-5--------------------|
B |1-0-----0-0---0-1-0---0-0-0-1-0-----0-0---0--------------------------------|

Not palm muted:
C#|---------------------------------------------------------------------------|
G#|---------------------------------------------------------------------------|
E |------7---------------5-5-5-5-------7--------------------------------------|
B |1-0---7-0-0---0-1-0---5-5-5-5-1-0---5-0-0----------------------------------|
F#|1-0---5-0-0---0-1-0---3-3-3-3-1-0---5-0-0---0-3-5-6-5-3-5------------------|
B |1-0-----0-0---0-1-0-----------1-0-----0-0---0------------------------------|

C#|---------------------------------------------------------------------------|
G#|---------------------------------------------------------------------------|
E |------7---------------3-3-3-3-------7--------------------------------------|
B |1-0---7-0-0---0-1-0---3-3-3-3-1-0---5-0-0----------------------------------|
F#|1-0---5-0-0---0-1-0---1-1-1-1-1-0---5-0-0---0-3-5-6-5-3-5------------------|
B |1-0-----0-0---0-1-0-----------1-0-----0-0---0------------------------------|

[Chorus] 
Rhyhtm guitars:
C#|---------------------------------------------------------------------------|
G#|---------------------------------------------------------------------------|
E |9--9--9-9--9--9-9--9--9-0---0---0--7--7--7-7--7--7-0--0--0-7--7--7---------|
B |9--9--9-9--9--9-9--9--9-9---9---9--0--0--0-0--0--0-2--2--2-7--7--7---------|
F#|7--7--7-7--7--7-7--7--7/10--10--10\5--5--5-5--5--5-3--3--3-5--5--5---------|
B |-----------------------------------0--0--0-0--0--0-------------------------| (2x)

Lead:
C#|12---12-14----14-15----15-14--14----10--10----10----12----12-14--14---|
G#|--12-------12-------12------12--12----12----12--12----12-------12--12-|
E |----------------------------------------------------------------------|
B |----------------------------------------------------------------------|
F#|----------------------------------------------------------------------|
B |----------------------------------------------------------------------|

C#|12---12-14----14-15----15-14--14----10--10----10----17----17-15--15-|
G#|--12-------12-------12------12--12----12----12--12----15-------15---|
E |--------------------------------------------------------------------|
B |--------------------------------------------------------------------|
F#|--------------------------------------------------------------------|
B |--------------------------------------------------------------------|

[Bridge]
Palm muted:
C#|-------------------------------------------------------------------------------|
G#|-------------------------------------------------------------------------------|
E |-----------------------------------------------------------------------8-8-8-8-|
B |0-2--2--3-2--0---0-2--2--3-2--0--0--0-0-2--2--3-2--0---0-2--2--3-2--0--8-8-8-8-|
F#|0-2--2--3-2--0---0-2--2--3-2--0--0--0-0-2--2--3-2--0---0-2--2--3-2--0--6-6-6-6-|
B |0-2--2--3-2--0---0-2--2--3-2--0--0--0-0-2--2--3-2--0---0-2--2--3-2--0----------|

Not palm muted:
C#|-----------------------------------------------|
G#|-----------------------------------------------|
E |-------------------------------------8-8-8-8---|
B |0-2--2--3-2--0--0--0-0-2--2--3-2--0--8-8-8-8---|
F#|0-2--2--3-2--0--0--0-0-2--2--3-2--0--6-6-6-6---|
B |0-2--2--3-2--0--0--0-0-2--2--3-2--0------------| (4x)

C#|----------------------------------------------------------|
G#|----------------------------------------------------------|
E |--------------------------------------------------8-8-8-8-|
B |0-2--2--3-2--------------------0-2--2--3-2--0-0-0-6-6-6-6-|
F#|0-2--2--3-2-------"Fly!"-------0-2--2--3-2--0-0-0-6-6-6-6-|
B |0-2--2--3-2--------------------0-2--2--3-2--0-0-0---------| (2x) 

C#|-------|
G#|-------|
E |-------|
B |2------|
F#|2------|
B |2------| 

Lead: ("And I cannot sleep tonight...")
C#|12---12-14----14-15----15-14--14----10--10----10----17----17-15--15-|
G#|--12-------12-------12------12--12----12----12--12----15-------15---|
E |--------------------------------------------------------------------|
B |--------------------------------------------------------------------|
F#|--------------------------------------------------------------------|
B |--------------------------------------------------------------------|

[Chorus] 
Rhyhtm guitars:
C#|---------------------------------------------------------------------------|
G#|---------------------------------------------------------------------------|
E |9--9--9-9--9--9-9--9--9-0---0---0--7--7--7-7--7--7-0--0--0-7--7--7---------|
B |9--9--9-9--9--9-9--9--9-9---9---9--0--0--0-0--0--0-2--2--2-7--7--7---------|
F#|7--7--7-7--7--7-7--7--7/10--10--10\5--5--5-5--5--5-3--3--3-5--5--5---------|
B |-----------------------------------0--0--0-0--0--0-------------------------| (2x)

Lead:
C#|12---12-14----14-15----15-14--14----10--10----10----12----12-14--14---|
G#|--12-------12-------12------12--12----12----12--12----12-------12--12-|
E |----------------------------------------------------------------------|
B |----------------------------------------------------------------------|
F#|----------------------------------------------------------------------|
B |----------------------------------------------------------------------|

C#|12---12-14----14-15----15-14--14----10--10----10----17----17-15--15-|
G#|--12-------12-------12------12--12----12----12--12----15-------15---|
E |--------------------------------------------------------------------|
B |--------------------------------------------------------------------|
F#|--------------------------------------------------------------------|
B |--------------------------------------------------------------------|

[Outro]
C#|---------------------------------|
G#|---------------------------------|
E |---------------------------------|
B |0-2--2--3-2--0--0--0-0-2--2--0-2-|
F#|0-2--2--3-2--0--0--0-0-2--2--0-2-|
B |0-2--2--3-2--0--0--0-0-2--2--0-2-|



************************************

| /  Slide up
| \  Slide down
 

************************************
Suggest correction
Creating personal tab
Creating personal tab
You can edit any tab online and save it as your Personal.

You can edit, replace or remove any tab part or add personal notes – all changes will be seen only by you.

Personal tabs can be accessed anytime from any device, even offline.
Learn more »
Give kudos to tab author, rate the tab!
1 2 3 4 5
comments
print report bad tab
guest
You may want to rate the tab now too:
select rating
Wanna post a correction for this tab? Suggest correction