Oops, an error
Loading. Please wait.

Ignore Me tab

40 views 1 this week
no commentswrite comment
1 2 3 4 5
3 more votes to show rating
add to favorites
×
Save as Personal and add changes to this tab that will be seen only by you. Learn more ›
×
You can save this tab as Personal to edit and correct it or add notes. All changes will be seen only by you. Learn more »
launch autoscroll
font size
0
reset
how to read this tab
guitar tuner
edit
Autoscroll
slow
fast
+/-
esc
set tempo
stop
BPM is changing (from 98 BPM in the intro up to 105 BPM for the most of the song)

[Intro and Verse - Clean Guitar]
C#|-------------------------------13-----------------------|
G#|-----------------------------11--15--\11-11/13~--13-13b-|
E |15\12-12--12-12/15--\12-12------------------------------|
B |--------------------------------------------------------|
F#|--------------------------------------------------------|
B |--------------------------------------------------------|

[Chorus - Rhytm Guitars] (2x)
C#|------------------------------------------------------------------|
G#|------------------------------------------------------------------|
E |7-7-7-7-7-7-7-7-7-7-7-7-7-7-7-7---7-7-7-7-7-7-7-7-7-7-7-7-7-7-7-7-|
B |5-5-5-5-5-5-5-5-5-5-5-5-5-5-5-5---5-5-5-5-5-5-5-5-5-5-5-5-5-5-5-5-|
F#|5-5-5-5-5-5-5-5-5-5-5-5-6-6-6-6---6-5-5-5-5-5-5-5-5-5-5-5-6-6-6-6-|
B |5-5-5-5-5-5-5-5-5-5-5-5-5-5-5-5---5-5-5-5-5-5-5-5-5-5-5-5-5-5-5-5-|
   *                       change    *                       change

C#|-----------------|
G#|-----------------|
E |10-------10------|
B |12-------8-------|
F#|12-(16x)-8-(16x)-|
B |0--------8-------|

[Verse 2]
Both guitars play the same (palm muted):
C#|----------------------------------------------------------------------|
G#|----------------------------------------------------------------------|
E |---------12-----------12-10-10-10----------12-------------12-10-10-10-|
B |----------------------------------------------------------------------|
F#|10-10-10----10--10-10-------------10-10-10----10-10-10-10-------------|
B |----------------------------------------------------------------------|

C#|----------------------------------------------------|
G#|----------------------------------------------------|
E |------10--------10-8-8-8-----8---8-8-8-8-8/10-10-10-|
B |----------------------------------------------------|
F#|6-6-6----6--6-6----------5-5---5--------------------|
B |----------------------------------------------------|

C#|------------------------------------------------------------------------|
G#|------------------------------------------------------------------------|
E |---------12-------------12-10-10-10----------12-------------12-10-10-10-|
B |------------------------------------------------------------------------|
F#|10-10-10----10-10-10-10-------------10-10-10----10-10-10-10-------------|
B |------------------------------------------------------------------------|

C#|----------------------------------------------------|
G#|----------------------------------------------------|
E |------10--------10-8-8-8-----8---8-8-8-8-8/10-10-10-|
B |----------------------------------------------------|
F#|6-6-6----6--6-6----------5-5---5--------------------|
B |----------------------------------------------------|

Now they change. Left guitar (not muted):
C#|-------------------------------------------------------------------------|
G#|-------------------------------------------------------------------------|
E |------12-----------12---12-10-10-10-------12-----------12----12-10-10-10-|
B |-------------------------------------------------------------------------|
F#|10-10----10-10--10----10------------10-10----10-10--10----10-------------|
B |-------------------------------------------------------------------------|

C#|-----------------------------------------------------|
G#|----4--------4---4-3-3-3-----4--------4--------------|
E |------------------------------------------8/10-10-10-|
B |-----------------------------------------------------|
F#|3-3---3-3--3---3---------3-3---3-3--3---3------------|
B |-----------------------------------------------------|

C#|-------------------------------------------------------------------------|
G#|-------------------------------------------------------------------------|
E |------12-----------12---12-10-10-10-------12-----------12----12-10-10-10-|
B |-------------------------------------------------------------------------|
F#|10-10----10-10--10----10------------10-10----10-10--10----10-------------|
B |-------------------------------------------------------------------------|

C#|-------------------------------------------------------------------------|
G#|-------------------------------------------------------------------------|
E |------10-----------10---10/12-12-12-------10-----------10----10/12-12-12-|
B |-------------------------------------------------------------------------|
F#|13-13----13-13--13----13------------13-13----13-13--13----13-------------|
B |-------------------------------------------------------------------------|

Right guitar:
C#|------------------------------------------------------------------------|
G#|------------------------------------------------------------------------|
E |------------------------------------------------------------------------|
B |------------------------------------------------------------------------|
F#|10--10--10--10-10--10-10--10--10-10-12--12--12--12-12--12-12--12--12-12-|
B |------------------------------------------------------------------------|

C#|----------------------------------------------------|
G#|----------------------------------------------------|
E |----------------------------------------------------|
B |----------------------------------------------------|
F#|6--6--6--6-6--6-6--6--6-6-5--5--5--5-5--5-5--5--5-5-|
B |----------------------------------------------------|

C#|------------------------------------------------------------------------|
G#|------------------------------------------------------------------------|
E |------------------------------------------------------------------------|
B |------------------------------------------------------------------------|
F#|10--10--10--10-10--10-10--10--10-10-12--12--12--12-12--12-12--12--12-12-|
B |------------------------------------------------------------------------|

C#|---------------------------------------------------------------------------------------|
G#|---------------------------------------------------------------------------------------|
E |---------------------------------------------------------------------------------------|
B |13--13--13--13-13--13-13--13--13-13-17-17-17-17-17-17-17-17-17-17-17-17-17-17-17-17-17-|
F#|---------------------------------------------------------------------------------------|
B |---------------------------------------------------------------------------------------|

[Chorus - Rhytm Guitars] (2x)
C#|------------------------------------------------------------------|
G#|------------------------------------------------------------------|
E |7-7-7-7-7-7-7-7-7-7-7-7-7-7-7-7---7-7-7-7-7-7-7-7-7-7-7-7-7-7-7-7-|
B |5-5-5-5-5-5-5-5-5-5-5-5-5-5-5-5---5-5-5-5-5-5-5-5-5-5-5-5-5-5-5-5-|
F#|5-5-5-5-5-5-5-5-5-5-5-5-6-6-6-6---6-5-5-5-5-5-5-5-5-5-5-5-6-6-6-6-|
B |5-5-5-5-5-5-5-5-5-5-5-5-5-5-5-5---5-5-5-5-5-5-5-5-5-5-5-5-5-5-5-5-|
   *                       change    *                       change

C#|-----------------|
G#|-----------------|
E |10-------10------|
B |12-------8-------|
F#|12-(16x)-8-(16x)-|
B |0--------8-------|

[Breakdown] (2x)
C#|--------------------------------|
G#|--------------------------------|
E |--------------------------------|
B |--------------------------------|
F#|1-0-0-0-1-0-0-0-1-0-0-0-1-0-3-5-|
B |1-0-0-0-1-0-0-0-1-0-0-0-1-0-----| (3x)

C#|--------------------------------|
G#|--------------------------------|
E |--------------------------------|
B |--------------------------------|
F#|3-3-3-3-3-3-3-3-8-8-8-8-8-8-8-8-|
B |3-3-3-3-3-3-3-3-8-8-8-8-8-8-8-8-|

[Build Up]
Lead guitar:
C#|---------------|
G#|--/15-13---13b-|
E |12-------------|
B |---------------|
F#|---------------|
B |---------------|

[Chorus]
Rhytm Guitars (4x)
C#|------------------------------------------------------------------|
G#|------------------------------------------------------------------|
E |7-7-7-7-7-7-7-7-7-7-7-7-7-7-7-7---7-7-7-7-7-7-7-7-7-7-7-7-7-7-7-7-|
B |5-5-5-5-5-5-5-5-5-5-5-5-5-5-5-5---5-5-5-5-5-5-5-5-5-5-5-5-5-5-5-5-|
F#|5-5-5-5-5-5-5-5-5-5-5-5-6-6-6-6---6-5-5-5-5-5-5-5-5-5-5-5-6-6-6-6-|
B |5-5-5-5-5-5-5-5-5-5-5-5-5-5-5-5---5-5-5-5-5-5-5-5-5-5-5-5-5-5-5-5-|
   *                       change    *                       change

C#|-----------------|
G#|-----------------|
E |10-------10------|
B |12-------8-------|
F#|12-(16x)-8-(16x)-|
B |0--------8-------|

Lead guitar:
C#|----------------|
G#|--/15-13--------|
E |12-----------15-|
B |-----------15---| (4x)
F#|----------------|
B |----------------|



************************************

| b  Bend
| /  Slide up
| \  Slide down
| ~  Vibrato
 

************************************

            
            
Suggest correction
Creating personal tab
Creating personal tab
You can edit any tab online and save it as your Personal.

You can edit, replace or remove any tab part or add personal notes – all changes will be seen only by you.

Personal tabs can be accessed anytime from any device, even offline.
Learn more »
Give kudos to tab author, rate the tab!
1 2 3 4 5
comments
print report bad tab
guest
You may want to rate the tab now too:
select rating
Wanna post a correction for this tab? Suggest correction