Oops, an error
Loading. Please wait.

Technically Alive bass

version 1
version 1

Whole song

Interactive

772 views 1 this week
no commentswrite comment
1 2 3 4 5
2 more votes to show rating
add to favorites
×
Save as Personal and add changes to this tab that will be seen only by you. Learn more ›
×
You can save this tab as Personal to edit and correct it or add notes. All changes will be seen only by you. Learn more »
launch autoscroll
font size
0
reset
guitar tuner
edit
Autoscroll
slow
fast
+/-
esc
set tempo
stop
Song:      Technically Alive
Band:      Exit Ten
Tuning:    Drop D
Tabbed by: benit13 (benit13@hotmail.com)

The verse part is really hard to hear and it is hard to differentiate whether the bass plays 

triplets or just two notes.  I think it's two notes, but feel to change it to your taste.

16/16 timing

Verse

G|------------------------------|---------------------------|
D|------------------------------|---------------------------|
A|------------------------------|---------------------------|
D|--0-0-0-0---0-0-0-0---0-0-0-0-|--0-0-0-0---0-0-0-0--0-12/-|
    
G|------------------------------|---------------------------|
D|------------------------------|---------------------------|
A|------------------------------|---------------------------|
D|--0-0-0-0---0-0-0-0---0-0-0-0-|--0-0-0-0---0-0-0-0--0-10--|

G|------------------------------|---------------------------|
D|------------------------------|---------------------------|
A|------------------------------|---------------------------|
D|--8-8-8-8---8-8-8-8---8-8-8-8-|--8-8-8-8---8-8-8-8--8-7---|

G|------------------------------|---------------------------|
D|------------------------------|---------------------------|
A|------------------------------|---------------------------|
D|--8-8-8-8---8-8-8-8---8-8-8-8-|--8-8-8-8---8-8-8-8--8-10--|


Bridge I:

G|---------------------------------|
D|---------------------------------|
A|---------5-5-5-5-5-5-5-5-3-3-3-3-|
D|-0-0-0-0-------------------------| x4 (Bass does not follow the singing!)


Repeat verse, then:

Bridge II:

G|--------------------------------------|
D|--------------------------------------|
A|---.-------.-------.------------------|
D|-8-8-----8-8-----8-8-----8-10----/14\-|


Chorus:
G|---------------------------------|---------------------------------|
D|---------------------------------|---------------------------------|
A|---------------------------------|---------------------------------|
D|-0-0-0-0-0-0-0-0-0-0-0-0-0-0-0-0-|-0-0-0-0-0-0-0-0-2-2-2-2-2-2-2-2-|

G|---------------------------------|---------------------------------|
D|---------------------------------|---------------------------------|
A|---------------------------------|---------------------------------|
D|-0-0-0-0-0-0-0-0-0-0-0-0-0-0-0-0-|-0-0-0-0-0-0-0-0-2-2-2-2-2-2-2-2-|

G|---------------------------------|---------------------------------|
D|---------------------------------|---------------------------------|
A|---------------------------------|-----------------7-7-7-7-7-7-7-7-|
D|-8-8-8-8-8-8-8-8-8-8-8-8-8-8-8-8-|-8-8-8-8-8-8-8-8-----------------|

G|---------------------------------|---------------------------------|
D|---------------------------------|---------------------------------|
A|---------------------------------|---------------------------------|
D|-8-8-8-8-8-8-8-8-8-8-8-8-8-8-8-8-|-8-8-8-8-8-8-8-8-1010101010101010|
                                                     (tenth fret)

Repeat verse, then:

Bridge III:
G|-------------------------------------|-------------------------------------|
D|-------------------------------------|-------------------------------------|
A|---.-------.-------.-----------------|---.-------.-------.-----------------|
D|-8-8-----8-8-----8-8-----8-8---------|-8-8-----8-8-----8-8-----8-10---/14\-|



Repeat chorus twice, then:

G|---------------------|
D|---------------------|
A|---------------------|
D|-0*------------------|

Let the note ring until the bass kicks back in.  Timing changes to 13/16


Interlude part I:

G|------------------------------------------------------|
D|------------------------------------------------------|
A|------------------------------------------------------|
D|-7-0-0-5-0-7-0-8-0-0-4-0-5-0-7-0-0-7-0-8-0-7-0-10-8-0-|

G|-------------------------------------------------------------|
D|-------------------------------------------------------------|
A|-------------------------------------------------------------|
D|-12-0-10-12-0-12-0-10-13-0-10-0-8-10-0-8-0-7-8-0-2-0-3-0-5-0-|

Repeat Interlude part I, then:


Interlude part II:

G|------------------------------------------------------|
D|------------------------------------------------------|
A|------------------------------------------------------|
D|-7-0-0-5-0-7-0-8-0-0-4-0-5-0-7-0-0-7-0-8-0-7-0-10-8-0-| x4


Back to 16/16 timing

G|-----------------------------|-----------------------------|
D|-----------------------------|-----------------------------|
A|-----------------------------|-----------------------------|
D|-0-0-0-0---0-0-0-0---0-0-0-0-|--0-0-0-0---0-0-0-0--0-12/---|

Repeat chorus twice, then repeat bridge I.  Then finish with

G|---------------------|
D|---------------------|
A|-.-------------------|
D|-0-------------------|
Suggest correction
Creating personal tab
Creating personal tab
You can edit any tab online and save it as your Personal.

You can edit, replace or remove any tab part or add personal notes – all changes will be seen only by you.

Personal tabs can be accessed anytime from any device, even offline.
Learn more »
Give kudos to tab author, rate the tab!
1 2 3 4 5
comments
print report bad tab
guest
You may want to rate the tab now too:
select rating
Wanna post a correction for this tab? Suggest correction