Oops, an error
Loading. Please wait.

Lucky One chords

by Exo
559 views 36 this week
no commentswrite comment
1 2 3 4 5
3 more votes to show rating
add to favorites
×
Save as Personal and add changes to this tab that will be seen only by you. Learn more ›
×
You can save this tab as Personal to edit and correct it or add notes. All changes will be seen only by you. Learn more »
launch autoscroll
font size
0
reset
transpose
0
reset
display chords
guitar tuner
edit
Autoscroll
slow
fast
+/-
esc
set tempo
stop
Strumming
There is no strumming pattern for this song yet. and get +5 IQ
[Intro]
D#m F#m G#m

E|----------------------------------------------------------------|
B|----------------------------------------------------------------|
G|----------6-8/10-8-6---6----------------------------------------|
D|-8-6-8-6-8-8--------8-6-8-6-8-6---------------------------------|
A|-----------------------------8-8-6-4-6-4-6/8-4------------------|
E|-----------------------------------------------6-4-6-4-6-4------|

[Verse 1]
E|----------------------------------------------------------------|
B|----------------------------------------------------------------|
G|----------6-8/10-8-6---6----------------------------------------|
D|-8-6-8-6-8-8--------8-6-8-6-8-6---------------------------------|(2x)
A|-----------------------------8-8-6-4-6-4-6/8-4------------------|
E|-----------------------------------------------6-4-6-4-6-4------|

D#m
Oh taeyangi tteunda
F#m
neol chaja jul jjidoreul deulgo
G#m                             D#m
jwapyoreul ttaranaseoneun hangno
                      F#m
No matter jeo eunppit nachimbaneun
                 G#m
neoreul hyanghal teni

[Verse 2]
E|------------------|
B|-6-6--6-----------|
G|-6-6--8-----------|
D|-0-0--8-----------|(4x)
A|------------------|
E|------------------|

D#m                            B
neoreul dalmeun haneureun areumdaweo
C#
oneuldo oneuldo idaero neon nunbusheo
D#m                            B
iksukan deut nasseon gil hwieo beorilkke

[Pre-Chorus]
   C#
neowa naye pyeonghaengseon
G#m    D#m            C#
neomeo neomeo I don’t mind
                G#m
keun padoe millyeo
  D#m              F
i hanghaeye kkeute naega

[Chorus 1]
E|-------------------------------------------------------------|
B|-------------------------------------------------------------|
G|----------6-8/10-8-6---6--------------6------------6---------|
D|-8-6-8-6-8-8--------8-6-8-6-8--6-8-6-8-8-8--6-8-6-8-8-8------|
A|-------------------------------------------------------------|
E|-------------------------------------------------------------|

            D#m
hwimorachineun sungan
            B
nae sesange meomchweoseon
          C#
neon naye Only one
                 D#m
neoreul balgyeonhan sungan
              G#m
deo challanhi binnaneun
             B
I’ll be the lucky one

[Chorus 2]
E|-------------------------------------------------------------|
B|-------------------------------------------------------------|
G|----------6-8/10-8-6---6--------------6------------6---------|
D|-8-6-8-6-8-8--------8-6-8-6-8--6-8-6-8-8-8--6-8-6-8-8-8------|
A|-------------------------------------------------------------|
E|-------------------------------------------------------------|

      D#m
neowa na (Livin’ it up)
D#m
igose (Just livin’ it up)
B
Keep on coming
C#
Oh wow wow wow
           D#m
gateun shigan soge
             G#m
Oh hana dwen geu sungan
              B
We’ll be the lucky ones

[Verse 3]
E|----------------------------------------------------------------|
B|----------------------------------------------------------------|
G|----------6-8/10-8-6---6----------------------------------------|
D|-8-6-8-6-8-8--------8-6-8-6-8-6---------------------------------|
A|-----------------------------8-8-6-4-6-4-6/8-4------------------|
E|-----------------------------------------------6-4-6-4-6-4------|

D#m
Girl (Oh girl)
               F#                   G#m
bimilseureopge sumgyeo dun neoye gobaek
                        D#m
(Just tell me right now) dagagalkke
                               F#
han georeum han georeum ne gyeote Baby
     G#m
oneuldo oneuldo jeolttaero Never go back

[Verse 4]
E|------------------|
B|-6-6--6-----------|
G|-6-6--8-----------|
D|-0-0--8-----------|(2x)
A|------------------|
E|------------------|

D#m                          B
ojik naman aneun Rule bakkweo beorilkke

[Pre-Chorus]
   C#
neowa naye pyeonghaengseon
G#m    D#m            C#
neomeo neomeo I don’t mind
                G#m
keun padoe millyeo
  D#m              F
i hanghaeye kkeute naega

[Chorus 1]
E|-------------------------------------------------------------|
B|-------------------------------------------------------------|
G|----------6-8/10-8-6---6--------------6------------6---------|
D|-8-6-8-6-8-8--------8-6-8-6-8--6-8-6-8-8-8--6-8-6-8-8-8------|
A|-------------------------------------------------------------|
E|-------------------------------------------------------------|

            D#m
hwimorachineun sungan
            B
nae sesange meomchweoseon
          C#
neon naye Only one
                 D#m
neoreul balgyeonhan sungan
              G#m
deo challanhi binnaneun
             B
I’ll be the lucky one

[Chorus 2]
E|-------------------------------------------------------------|
B|-------------------------------------------------------------|
G|----------6-8/10-8-6---6--------------6------------6---------|
D|-8-6-8-6-8-8--------8-6-8-6-8--6-8-6-8-8-8--6-8-6-8-8-8------|
A|-------------------------------------------------------------|
E|-------------------------------------------------------------|

      D#m
neowa na (Livin’ it up)
D#m
igose (Just livin’ it up)
B
Keep on coming
C#
Oh wow wow wow
           D#m
gateun shigan soge
             G#m
Oh hana dwen geu sungan
              B
We’ll be the lucky ones

[Rap 1]
               D#m
sumaneun saram sok naye Lover
         Cm
uni joke chajeun ne ip Clover
              B
ol kkeot gata naegero neoran haengundo
         Cm
meotjiji nuga mweora haedo

[Rap 2]
               D#m
neol ara galsurok Yeah, let’s go
           Cm
gongjonhal su eomneun goseun eopseo
          B
neon naye Only one
          B
nan neoye Lucky one
N.C.
Cause I, I, I

[Chorus 1]
E|-------------------------------------------------------------|
B|-------------------------------------------------------------|
G|----------6-8/10-8-6---6--------------6------------6---------|
D|-8-6-8-6-8-8--------8-6-8-6-8--6-8-6-8-8-8--6-8-6-8-8-8------|
A|-------------------------------------------------------------|
E|-------------------------------------------------------------|

            D#m
hwimorachineun sungan
            B
nae sesange meomchweoseon
          C#
neon naye Only one
                 D#m
neoreul balgyeonhan sungan
              G#m
deo challanhi binnaneun
             B
I’ll be the lucky one

[Chorus 2]
E|-------------------------------------------------------------|
B|-------------------------------------------------------------|
G|----------6-8/10-8-6---6--------------6------------6---------|
D|-8-6-8-6-8-8--------8-6-8-6-8--6-8-6-8-8-8--6-8-6-8-8-8------|
A|-------------------------------------------------------------|
E|-------------------------------------------------------------|

      D#m
neowa na (Livin’ it up)
D#m
igose (Just livin’ it up)
B
Keep on coming
C#
Oh wow wow wow
           D#m
gateun shigan soge
             G#m
Oh hana dwen geu sungan
              B
We’ll be the lucky ones

[Outro]
E|-------------------------------------------------------------|
B|-------------------------------------------------------------|
G|----------6-8/10-8-6---6--------------6------------6---------|
D|-8-6-8-6-8-8--------8-6-8-6-8--6-8-6-8-8-8--6-8-6-8-8-8------|(2x)
A|-------------------------------------------------------------|
E|-------------------------------------------------------------|

         D#m        B        C#
I am the lucky one
D#m        G#m        B
N.C.
I am the lucky one

            
            
Suggest correction
Creating personal tab
Creating personal tab
You can edit any tab online and save it as your Personal.

You can edit, replace or remove any tab part or add personal notes – all changes will be seen only by you.

Personal tabs can be accessed anytime from any device, even offline.
Learn more »
Give kudos to tab author, rate the tab!
1 2 3 4 5
comments
print report bad tab
guest
You may want to rate the tab now too:
select rating
Wanna post a correction for this tab? Suggest correction