Oops, an error
Loading. Please wait.

Stay With Me tab

version 1
version 1

Whole song

by Exo
28,978 views 372 this week
1 commentread comment
1 2 3 4 5
x 4
add to favorites
×
Save as Personal and add changes to this tab that will be seen only by you. Learn more ›
×
You can save this tab as Personal to edit and correct it or add notes. All changes will be seen only by you. Learn more »
launch autoscroll
font size
0
reset
how to read this tab
guitar tuner
edit
Autoscroll
slow
fast
+/-
esc
set tempo
stop
To be clear these are not my tabs (I wrote them but they are not mine), 
The original video with these tabs is here: https://www.youtube.com/watch?v=XYRRQqHvmvg

There was just no tutorial on it so I wanted to make one, especially after I saw there was nothing
for this song on ultimate-guitar. 

DISCLAIMER: I know practically nothing about guitar but I wanted to make these tabs to help anyone
who would like to play this song, so if there are mistakes, tell me   

Capo 3rd fret

[Intro]

e|--------0-5--5-7--3--3-0-3--3-----|
B|--1--1-------------------------3--|
G|----------------------------------|
D|----------------------------------|
A|----------------------------------|
E|----------------------------------| X2


[Chorus]

e|--------0-5--5-7--3--3-0-3--3-----|
B|--1--1-------------------------3--|
G|----------------------------------|
D|----------------------------------|
A|----------------------------------|
E|----------------------------------| X4


[Verse]

e|---------------------------------------|
B|---1-1-1-1--1-1-1-1--1-1-1-1--0-0-0-0--|
G|---------------------------------------|
D|--2-2-2-2--3-3-3-3--2-2-2-2--0-0-0-0---|
A|---------------------------------------|
E|---------------------------------------| X2

e|------------------------------------------|
B|---1-1--1----1-1--1----1-1--1----0-0--0---|
G|------------------------------------------|
D|--2-2--2-2--3-3--3-3--2-2--2-2--0-0--0-0--|
A|------------------------------------------|
E|------0---------0---------0---------3-----| X2


(or hold down the chords Am F C and G when playing)


[Chorus]

e|--------0-5--5-7--3--3-0-3--3-----|
B|--1--1-------------------------3--|
G|----------------------------------|
D|----------------------------------|
A|----------------------------------|
E|----------------------------------| X4


(Repeat Verse and Chorus throughout the entire song as seen fit,
refer to MV: https://www.youtube.com/watch?v=pcKR0LPwoYs&index=6&list=PLYhsbJQleeGKSpfoJ-_7-WEotYAhDkzXB )


Alternatively, play the chords Am F C and G throughout the entirety of the song

            
            
Suggest correction
Creating personal tab
Creating personal tab
You can edit any tab online and save it as your Personal.

You can edit, replace or remove any tab part or add personal notes – all changes will be seen only by you.

Personal tabs can be accessed anytime from any device, even offline.
Learn more »
comments
print report bad tab
1 comment total.
0 reply
sktmontage01 10 Jul 06, 2017 09:12 AM

I dont know the fingerstyle of the "or hold down the chords Am F C and G when playing" SAD

guest
You may want to rate the tab now too:
select rating
Wanna post a correction for this tab? Suggest correction