Oops, an error
Loading. Please wait.

Stay With Me tab

version 2
version 2

Whole song

by Exo
1,333 views 42 this week
no commentswrite comment
1 2 3 4 5
x 3
add to favorites
×
Save as Personal and add changes to this tab that will be seen only by you. Learn more ›
×
You can save this tab as Personal to edit and correct it or add notes. All changes will be seen only by you. Learn more »
launch autoscroll
font size
0
reset
how to read this tab
guitar tuner
edit
Autoscroll
slow
fast
+/-
esc
set tempo
stop
EXO Chanyeol 엑소 찬열, Punch 펀치 - STAY WITH ME

I used the acoustic cover of the video (link below) to create the NO-Capo version of this tab.
Original cover with capo: https://www.youtube.com/watch?v=XYRRQqHvmvg

If there are mistakes in this tab, tell me para maayos ko.


[Intro]
e|--------3/8--8-8--10--6-6--3--6-6-----|
B|--4--4-----------------------------6--|
G|--------------------------------------|
D|--------------------------------------|
A|--------------------------------------|
E|--------------------------------------| X2

[Chorus]
e|--------3/8--8-8--10--6-6--3--6-6-----|
B|--4--4-----------------------------6--|
G|--------------------------------------|
D|--------------------------------------|
A|--------------------------------------|
E|--------------------------------------| X4

[Verse]
e|------------------------------------------|
B|---4-4-4-4---4-4-4-4---4-4-4-4---3-3-3-3--|
G|------------------------------------------|
D|--5-5-5-5---6-6-6-6---5-5-5-5---3-3-3-3---|
A|------------------------------------------|
E|------------------------------------------| X2

e|------------------------------------------|
B|---4-4--4----4-4--4----4-4--4----3-3--3---|
G|------------------------------------------|
D|--5-5--5-5--6-6--6-6--5-5--5-5--3-3--3-3--|
A|------------------------------------------|
E|------3---------3---------3---------6-----| X2

[Chorus]
e|--------3/8--8-8--10--6-6--3--6-6-----|
B|--4--4-----------------------------6--|
G|--------------------------------------|
D|--------------------------------------|
A|--------------------------------------|
E|--------------------------------------| X4

[Verse]
e|------------------------------------------|
B|---4-4-4-4---4-4-4-4---4-4-4-4---3-3-3-3--|
G|------------------------------------------|
D|--5-5-5-5---6-6-6-6---5-5-5-5---3-3-3-3---|
A|------------------------------------------|
E|------------------------------------------| 

e|-----------------------------------|
B|---4-4-4-4---4-4-4-4---4-4-4-4--3--|
G|-----------------------------------|
D|--5-5-5-5---6-6-6-6---5-5-5-5---3--|
A|-----------------------------------|
E|-----------------------------------| 

(In the rap part, you can play either the verse or the chorus tab.)
(But in the MV, they use the two tabs in separate guitars.)

[Chorus]
e|--------3/8--8-8--10--6-6--3--6-6-----|
B|--4--4-----------------------------6--|
G|--------------------------------------|
D|--------------------------------------|
A|--------------------------------------|
E|--------------------------------------| X4


************************************
| /   Slide up
************************************

            
            
Suggest correction
Creating personal tab
Creating personal tab
You can edit any tab online and save it as your Personal.

You can edit, replace or remove any tab part or add personal notes – all changes will be seen only by you.

Personal tabs can be accessed anytime from any device, even offline.
Learn more »
Give kudos to tab author, rate the tab!
1 2 3 4 5
comments
print report bad tab
guest
You may want to rate the tab now too:
select rating
Wanna post a correction for this tab? Suggest correction