Oops, an error
Loading. Please wait.

30 Seconds Tab

version 1
version 1

Whole song

Interactive

3,155 views 3 this week
no commentswrite comment
1 2 3 4 5
please rate
add to favorites
launch autoscroll
font size
0
reset
how to read this tab
guitar tuner
Autoscroll
slow
fast
+/-
esc
set tempo
stop
Help us to improve Ultimate-Guitar.com Take our survey!
×
Author
                             30 Seconds - Exodus
-----------------------------------------------------------------------------
Tabbed by: Kevin (ampmstr)
Email: ampmstr@gmail.com
Pleasures of the Flesh
First time transcribing and tabbing. Exodus!!!
Listen to the song for the end strumming.

Tuning: I think it is 1/4 step down from standard tuning.

e|-----------------------------------7-------5----------------7----------5---|
B|---7---8-----------5---8---7---8-------8----------------8--------8---------|
G|---------------------------------------------------------------------------|
D|-----------------------------------5-------4----7-------5---5----5-----4---|
A|---5------4--------4---5---5---5--------------------5----------------------|
E|---------------5-----------------------------------------------------------|

e|----------------7--------8-------------------------------------------------|R
B|-----------8--------8--------10--------------------------------------------|E
G|-----------------------------------------------9---------------------------|P
D|---7-------5--------5----7---------------------6---------------------------|E
A|-------5--------------------------9---6---7----7---------------------------|A
E|---------------------------------------------------------------------------|T

e|-------------------------10---7-------9--------10-----10-------------------|
B|---3---2-----------------7--------8-------10----------7-----3---2----------|
G|-------------------------7----------------------------7--------------------|
D|-------------------------7----5-------7---------------7--------------------|
A|---2---0-------------0--------------------------------------2---0----------|
E|-----------2h3h5---------------------------------------------------2h3h5---|

e|-------10---7-------9-------------------------8---------------7------------|
B|-------7--------8------10--------[7]--------------10--------------8--------|
G|-------7-------------------------------[7]---------------------------------|
D|-------7----5-------7-------[7]---------------7-----------7---5----------5-|
A|---0---------------------------------------------------9--------------7----|
E|---------------------------------------------------------------------------|

e|---5-------------3----5----7---10----8------------------7------------------|
B|------7-----------------------------------10----------------8--------------|
G|---------------------------------------------------------------------------|
D|---4---------4---2-------------------7-------------7----5-----------5------|
A|----------6------------------------------------9----------------7----------|
E|---------------------------------------------------------------------------|

e|---7-----0------7h8h7--------7-----------10---------------12---------------|
B|---7-----0--------------10------8------------8-----------------12----------|
G|---8-----0--------------------------9-----------9-------------------12-----|
D|---9-----2-----------------------------------------------------------------|
A|---9-----2-----------------------------------------------------------------|
E|---7-----0-------------------------------------------0---------------------|

e|---14-----------15------------0--------------------------------------------|
B|-------12------------------------------------------------------------------|
G|-----------12--------------------------------------------------------------|
D|---------------------------------------------------------------------------|
A|---------------------------------------------------------------------------|
E|-----------------------[12]------------------------------------------------|

Enjoy playing.

************************************

| /   slide up
| \   slide down
| h   hammer-on
| p   pull-off
| ~   vibrato
|[#]   harmonic
| x   Mute note
| b   Bend
| pb  Pre-bend
| br  Bend release
| pbr Pre-bend release
| brb Bend release bend

************************************
Suggest correction
What's this?
You can suggest a correction to this tab. Community and Mods will review your correction and vote to approve or reject it.
comments
We did not receive enough feedback on this tab! Please rate:
print report bad tab
1 2 3 4 5
guest
You may want to rate the tab now too:
select rating
Please do not post tabs as comments. Select "correction" instead!