Oops, an error
Loading. Please wait.

A Lesson In Violence bass

version 1
version 1

Whole song

Interactive

by Exodus
4,554 views 12 this week
no commentswrite comment
1 2 3 4 5
1 last vote to show rating
add to favorites
×
Save as Personal and add changes to this tab that will be seen only by you. Learn more ›
×
You can save this tab as Personal to edit and correct it or add notes. All changes will be seen only by you. Learn more »
launch autoscroll
font size
0
reset
guitar tuner
edit
Autoscroll
slow
fast
+/-
esc
set tempo
stop
Author
This is the 4th track on ''Bonded By Blood'' by the trash band Exodus.
Strandard tuning EADG
 Intro Guitar
G------------------------------------|
D---------------------3--------------|
A--5-4-5-3--2---5-4-5---2------------| 2x
E------------------------------------|

 Riff 1
G------------------------------------|
D-------------------------------3----|
A-2222222-5-4-5-3-2222222-5-4-3------| 2x
E------------------------------------|

 Riff 2
G------------------------------------|
D------------------------------------|
A------------4-3---------------5-5h7-|
E-000000-5-4----3-0-000000-5p4--0----|

G---------------------------------------------|
D---------------------------------------------|
A------------4-3--------4-3--------4-3--------|
E-000000-5-4----3-0-5-4----3-0-5-4----3-0-2---|

Riff 1 Verse 4x

Riff 2 Pre-Chorus

''Fight for what you believe to be right''
G------------------------------------|
D------------------------------------|
A------------4-3---------------5-5h7-|
E-000000-5-4----0-3-000000-5p4--0----|

G------------------------------------| This last thing starts you right
D------------------------------------| on the chorus
A------------4-3--------------55h7---|
E-000000-5-4----0-3-000000-5-4-------|

Chorus

G--------------------------------------|
D--------------------------------------| 2x
A-8-7-5-88-7-7---8-7-5-----------------|
E----------------------6-5-3-0---------|

Riff 2 1x

Verse 4x

Pre Chorus 1x

Chorus 2x

Solo 8x

G------------------------------------|
D------------------------------------|
A---------------------8-7-5----------| 4x
E-000000-8-7-5-88-7-7------6-5-3-----|

On the second part of you play the exact
same thing but instead two frets higher 4x

Bridge

G----------------------------------------------|
D--------------------------44444---------------|
A------------55555-75444444------7544444-----9-|
E-33333-22222---------------------------4-5-7--|

G------------------------------------|
D------------------------------------|
A-999999999999999999-2---------------|
E------------------------------------|

Intro and a little bit on Riff 1

Outro
Im not 100% about this last notes
G----------------------------------------|
D----------------------------------------|
A-222222-9-7-5-7-5-3-5-2-3-2-0---Rest--2-|
E------------------------------0---------|
Suggest correction
Creating personal tab
Creating personal tab
You can edit any tab online and save it as your Personal.

You can edit, replace or remove any tab part or add personal notes – all changes will be seen only by you.

Personal tabs can be accessed anytime from any device, even offline.
Learn more »
Give kudos to tab author, rate the tab!
1 2 3 4 5
comments
print report bad tab
guest
You may want to rate the tab now too:
select rating
Wanna post a correction for this tab? Suggest correction