Oops, an error
Loading. Please wait.

Burn Hollywood Burn guitar pro

version 2
version 2

Whole song

Interactive

by Exodus
3,138 views 3 this week
4 commentsread comments
1 2 3 4 5
1 last vote to show rating
add to favorites
guitar tuner
Autoscroll
slow
fast
+/-
esc
set tempo
stop
Author
File Format
Filesize
Instruments
.gp4
52 Kb
rhythm_guitars #2, basses, percussions
"Burn Hollywood Burn"
demo version
Play now

or get full version for Free

×
Get full version now!
Learn and play this song
in Tab Pro
Try for free

or get $10 off Welcome Bonus

Get welcome bonus
Get access to Tab Pro version of “Burn Hollywood Burn”!
Tab Pro is a premium guitar tab service, available on PC, Mac, iOS and Android
TRY FOR FREE
Your download will start in 7 seconds
×
Like this song? We have more! Follow us on Facebook for daily tips, lessons and other guitar-related content.
To download “Burn Hollywood Burn” Guitar Pro tab click button below
Please note that you must have Guitar Pro software installed on your
computer in order to view this file.
Suggest correction
Give kudos to tab author, rate the tab!
1 2 3 4 5
comments
report bad tab
4 comments total. Showing first comments.
+1 reply
thrasher2905 10 Sep 06, 2010 03:57 AM

just a little correction on the main riff:

:------------------------------------------------------------------:
:------------------------------------------------------------------:
:------------------------------------------------------------------:
:------------------------------------------------------------------:
:-0h2---------5h6-----6h7-----10p7-5h8-------------5-------4-------:
:-----000-000-----0-0-----0-0----------000-000-1/3---0-1/2---0-1h3-:
... ... . . . . ... ... . .

:------------------------------------------------------------------:
:------------------------------------------------------------------:
:------------------------------------------------------------------:
:--------------------------------------------------------------3---:
:-0h2---------5h6-----6h7-----10p7-5h8-----------------5-----4-3---:
:-----000-000-----0-0-----0-0----------000-000-000-2^3---1^2---1---:
... ... . . . . ... ... ...

0 reply
thrasher2905 10 Sep 06, 2010 03:58 AM

sorry. the palm muted dots are out of place

0 reply
the_arod 2,159 Sep 07, 2010 07:11 AM

thanks very much for the correction mate.
The rest is all fine I guess??

guest
You may want to rate the tab now too:
select rating