Oops, an error
Loading. Please wait.

Exodus solo tab

version 1
version 1

Solo

Whole song

Interactive

by Exodus
466 views 3 this week
no commentswrite comment
1 2 3 4 5
2 more votes to show rating
add to favorites
×
Save as Personal and add changes to this tab that will be seen only by you. Learn more ›
×
You can save this tab as Personal to edit and correct it or add notes. All changes will be seen only by you. Learn more »
launch autoscroll
font size
0
reset
how to read this tab
guitar tuner
edit
Autoscroll
slow
fast
+/-
esc
set tempo
stop
Author
Difficulty
----------------------------------------------------------------------------
                                 Exodus - EXODUS SOLO
----------------------------------------------------------------------------
Tabbed By: MrPurple5106
Email: mrpurple5106@gmail.com
Tuning: Standard

I divided it into sections for the convenience of the learner. Keep in mind, there are 
two guitars. Sections 1-7 are guitar 1 and sections 9-11 are guitar 2. Section 8 is both.

Section 1
E|----------------------------------------------------------------------------14----------14----|
B|-h7h10p5h7-h10p5h7-h11p5h7-h13p5h8-h14p7h9-h15p9h10-h16p8h11-h17p9h11-17b19-17b19-17b19-17b19-|
G|----------------------------------------------------------------------------------------------|
D|----------------------------------------------------------------------------------------------|
A|----------------------------------------------------------------------------------------------|
E|----------------------------------------------------------------------------------------------|

Section 2
E|-17p14-17p14-17----14h17b19-17b19-17\14-17p14----17p14----17p14----17p14----------------------|
B|----------------14----------------------------14-------14-------14-------14-17----14-14\------|
G|----------------------------------------------------------------------------16b18-14-14\------|
D|----------------------------------------------------------------------------------------------|
A|----------------------------------------------------------------------------------------------|
E|----------------------------------------------------------------------------------------------|

Section 3
(For this part, pull your tremolo arm upwards, if your guitar allows you to do so, and vibrato.
If not, bend and vibrato, like tabbed so)
E|----------------------------------------------------------------------------------------------|
B|-17p14-17b19~-17p14-17b19~-h17p13-h16p12-h15p11-h14p10\-14b17r14-17b19~-----------------------|
G|----------------------------------------------------------------------------------------------|
D|----------------------------------------------------------------------------------------------|
A|----------------------------------------------------------------------------------------------|
E|----------------------------------------------------------------------------------------------|

Section 4
E|----------------------------------------------------------------------------------------------|
B|-------17+-----------------------------------14-----------------------------------------------|
G|-14h16b18+--------16\11b12r11b12r11-6b7r6/11--------------------------------------------------|
D|-----Push down on-----------------------------------------------------------------------------|
A|-----trem 6 times-----------------------------------------------------------------------------|
E|----------------------------------------------------------------------------------------------|

Section 5
E|----------------------------------------------------------------------------------------------|
B|-15p14----14h17p14-17p15p14-15p14p12----------------------------------------------------------|
G|-------13----------------------------16p14p13-------------------------------------------------|
D|----------------------------------------------16p15h16b18r16----------------------------------|
A|----------------------------------------------------------------------------------------------|
E|----------------------------------------------------------------------------------------------|

Section 6
E|-------16-17-16-14b16r14-13-14-16-------17-19-21p17----21b22r21-17-19p17p16-------------------|
B|----------------------------------17b19-------------19----------------------------------------|
G|-11/18----------------------------------------------------------------------------------------|
D|----------------------------------------------------------------------------------------------|
A|----------------------------------------------------------------------------------------------|
E|----------------------------------------------------------------------------------------------|

Section 7
E|-21p17-19p17p16-21p17-19p17p16-21p17-19p17-------19p17-19p16----------------------------------|
B|-------------------------------------------19h21-------------17b19-17b19~-17b19r17-15-14~-----|
G|----------------------------------------------------------------------------------------------|
D|----------------------------------------------------------------------------------------------|
A|----------------------------------------------------------------------------------------------|
E|----------------------------------------------------------------------------------------------|

Section 8 (Guitar 1)
E|-----16-12-14~--------------------------------------------------------------------------------|
B|----------------------------------------------------------------------------------------------|
G|----------------------------------------------------------------------------------------------|
D|----------------------------------------------------------------------------------------------|
A|----------------------------------------------------------------------------------------------|
E|----------------------------------------------------------------------------------------------|

Section 8 (Guitar 2)
E|----------------------------------------------------------------------------------------------|
B|----------------------------------------------------------------------------------------------|
G|-7b9r7p6---11b13r11p9----9h11b13r11b13r11b13p9h11b13------------------------------------------|
D|---------7------------11----------------------------------------------------------------------|
A|----------------------------------------------------------------------------------------------|
E|----------------------------------------------------------------------------------------------|

Section 9
E|-------------------------------------------12----------12-------------------------------------|
B|-12-12----12-12----12-12----12-12----12b14----12b14-14----12----------------------------------|
G|-------13-------13-------13-------13----------------------------------------------------------|
D|----------------------------------------------------------------------------------------------|
A|----------------------------------------------------------------------------------------------|
E|----------------------------------------------------------------------------------------------|

Section 10
E|------------------------------16----16-------21-----------------------------------------------|
B|-9h10h12-10h12h14-12h14h16p14----16----19b21----19b21r19b21-----------------------------------|
G|----------------------------------------------------------------------------------------------|
D|----------------------------------------------------------------------------------------------|
A|----------------------------------------------------------------------------------------------|
E|----------------------------------------------------------------------------------------------|

Section 11
(For the last two notes, push down on trem on 13, and pull up on 11)
E|-------------------------------------------16-17----------------------------------------------|
B|-14-16-14-14-15-16-17-14-17-16-15-14-12-14----------------------------------------------------|
G|-------------------------------------------------13p11~---------------------------------------|
D|----------------------------------------------------------------------------------------------|
A|----------------------------------------------------------------------------------------------|
E|----------------------------------------------------------------------------------------------|

************************************

| /   slide up
| \   slide down
| h   hammer-on
| p   pull-off
| ~   vibrato
| +   harmonic
| x   Mute note
| b   Bend
| pb  Pre-bend
| br  Bend release
| pbr Pre-bend release
| brb Bend release bend

************************************

            
            
Suggest correction
Creating personal tab
Creating personal tab
You can edit any tab online and save it as your Personal.

You can edit, replace or remove any tab part or add personal notes – all changes will be seen only by you.

Personal tabs can be accessed anytime from any device, even offline.
Learn more »
Give kudos to tab author, rate the tab!
1 2 3 4 5
comments
print report bad tab
guest
You may want to rate the tab now too:
select rating
Wanna post a correction for this tab? Suggest correction