Oops, an error
Loading. Please wait.

Funeral Hymn guitar pro

version 2
version 2

Whole song

Interactive

by Exodus
5,694 views 12 this week
2 commentsread comments
1 2 3 4 5
x 6
add to favorites
guitar tuner
Autoscroll
slow
fast
+/-
esc
set tempo
stop
"Funeral Hymn"
demo version
Play now

or get full version for Free

×
Get full version now!
Learn and play this song
in Tab Pro
Try for free

or get $10 off Welcome Bonus

Get welcome bonus
Get access to Tab Pro version of “Funeral Hymn”!
Tab Pro is a premium guitar tab service, available on PC, Mac, iOS and Android
TRY FOR FREE
Your download will start in 7 seconds
×
Like this song? We have more! Follow us on Facebook for daily tips, lessons and other guitar-related content.
To download “Funeral Hymn” Guitar Pro tab click button below
Please note that you must have Guitar Pro software installed on your
computer in order to view this file.
Suggest correction
comments
report bad tab
2 comments total.
+1 reply
the_arod 2,159 Aug 13, 2010 02:23 AM

D||------------------------|
A||------------------------|
F||------------------------|
C||------------3--------3--|
G||---------5--1-----5--1--|
D||---------3-----0--3-----|

Should be

D||------------------------|
A||------------------------|
F||---------0--------0-----|
C||---------0--3-----0--3--|
G||------------1--------1--|
D||---------------0--------|


Those nasty sounding parts in this riff (and the verse variation of it) are open C,F and open G, C. Look at this instruction video by Gary and Lee: http://www.youtube.com/watch?v=xTzG9_WOHDA

0 reply
slipknotmetal4 10 May 25, 2014 07:52 PM

D||------------------------|
A||------------------------|
F||----3-----3-------------|
C||----3-----3-------------|
G||-2--1--2--1---2---------|
D||-0-----0------0---------|

D||--------------------------------------------------------------------|
A||--------------------------------------------------------------------|
F||----3-----3---------------------------------------------------------|
C||----3-----3---------------------------------------------------------|
G||-2--1--2--1--2------------------------------------------------------|
D||-0-----0-----0-0-0-0-0-000--0-0-0-0-0-0-000--0-0-000-0-0-000--0-----|

D||--------------------------------------------------------|
A||--------------------------------------------------------|
F||----3-----3---------3-----3-----------------------------|
C||----3-----3---------3-----3-----------------------------|
G||-2--1--2--1--2---2--1--2--1--2-2-2----------------------|
D||-0-----0-----0---0-----0-----0-0-0----------------------|

guest