Oops, an error
Loading. Please wait.

Toxic Waltz Tab

version 1
version 1

Whole song

Interactive

34,093 views 54 this week
no commentswrite comment
1 2 3 4 5
x 15
add to favorites
launch autoscroll
font size
0
reset
how to read this tab
guitar tuner
Autoscroll
slow
fast
+/-
esc
set tempo
stop
Help us to improve Ultimate-Guitar.com Take our survey!
×
e|-----------------------------------:-----------------------------------------|
B|-----------------------------------:-----------------------------------------|
G|-----------------------------------:-----------------------------------------|
D|-----------------------------------:-----------------------------------------|
A|-6--------5-----3--3--2---3--3--2--:-3-4-6--------5-----3--3--2--3-2-0-------|
E|-4--0--0--3--0--1--1--0---1--1--0--:-1-2-4--0--0--3--0--1--1--0--------4-3-0-|

e|----------------------------------:------------------------------------------|
B|----------------------------------:------------------------------------------|
G|----------------------------------:------------------------------------------|
D|----------------------------------:------------------------------------------|
A|-2----3--3/6--5--5-----5\3--2--2--:----4\3----4\3----4\3--3--4--5------------|
E|-0-0--1--1/4--3--3--0--3\1--0--0--:-0--2\1-0--2\1-0--2\1--1--2--3------------|

e|----riff1--------------------------:-----------------------------------------|
B|-----------------------------------:------------------------------------4x---|
G|-----------------------------------:-----------------------------------------|
D|-----------------------------------:-----------------------------------------|
A|-6--------5-----3--3--2---3--3--2--:-3-4-6--------5-----3--3--2--------------|
E|-4--0--0--3--0--1--1--0---1--1--0--:-1-2-4--0--0--3--0--1--1--0--0--0--0--0--|

e|----riff2----------------------:---------------------------------------------|
B|-------sb----sb-------sb----sb-:----------------------------------------4x---|
G|-------------------------------:---------------------------------------------|
D|--------)-----)--------)-----)-:---------------------------------------------|
A|-2-----6-----5--2-----6-----5--:----3--3--2--------------3--3--2-----3--2----|
E|-0--0--4--0--3--0--0--4--0--3--:-0--1--1--0--0--0--0--0--1--1--0--0--1--0----|

e|----riff3-------------------4x--:riff1 1 x-----------------------------------|
B|--------------------------------:riff1---------------------------------------|
G|--------------------------------:riff2---------------------------------------|
D|--------^-----------------------:riff3---------------------------------------|
A|-2-----3-2--5-----6--5--2-------:riff1 1 x-----------------------------------|
E|-0--0--1-0--3--0--4--3--0-------:solo----------------------------------------|

e|-solo1----------------------------4x-:solo2-4--------------------------------|
B|-------------------------------------:---------------------------------------|
G|-------------------------------------:---------------------------------------|
D|-------------------------------------:----------2-----4/5----------2---5/4---|
A|-2-------5-----6--5--2--------5--7/8-:-4--------0-----2/3--4-------0---3\2---|
E|-0--0-0--3--0--4--3--0--0--0--3--5/6-:-2--2--2-----2-------2--2--2---2-------|

e|-solo3-5---------:-riff4--------------------------:----------------------4x---|
B|-----------------:--------------------------------:---------------------------|
G|------2----------:--------------------------------:---------------------------|
D|-4----0-----5\4--:------5-----------3--3----------:------5-----------3--------|
A|-2--2----2--3\2--:-3/5--3--3--3--3--1--1--2-------:-3/5--3--3--3--3--1--------|
E|-----------------:-1/3--------1--1--------0--0--0-:-1/3--------1--1---0-0-0-0-|

e|--------:--------------------------------------------------------------------|
B|--------:--------------------------------------------------------------------|
G|--------:--------------------------------------------------------------------|
D|--------:-2------3-3-------2-----3-3-----2-----3-3---------------------------|
A|-1-1-1-1:-0---0--1-1--2----0--0--1-1--2--0--0--1-1--2------------------------|
E|--------:-------------0--0------------0-------------0--0--0--0--0------------|

[solo 2]
            ^ ^ ^ ^^^  ^ p                          +1/2        +1/2       +1/2
e|-----14---)-|-|-|||--|\^-------14--^-----^-p--------^----------^----------^--------------|
B|--------17----------17--14---14--1714----)\^--------)\---------)\---------)\-------------|
G|-/16-----------------------17------p-1716---14-14-16--14--14-16--14--14-16--14--14-------|
D|---------------------------------------------------b----16----b----16----b----16---------|
A|-----------------------------------------------------------------------------------------|
E|-----------------------------------------------------------------------------------------|

                          ^ ^                   ^ ^    )\)\ )\)\)
e|-----p---p--------^-^-141614--14161916141618211816-22-22-20----|+1-1/2-------------------|
B|-----^---^------141614------17----------------p-p--------------|--^----------------------|
G|---17141714-1416-----------------------------------------------|--)\-1413----------------|
D|-\/------------------------------------------------------------|16-------16-14\11--------|
A|---------------------------------------------------------------|-----------------12------|
E|---------------------------------------------------------------|-------------------------|

                                                      bar
e|---------------------------------------------------~~~~~~~----------|
B|------------------------------------------121415/1918171514---^-^---|
G|-----------------------.-.-..-----111314------------trill---131413--|
D|-11----^---------.-.-..911129-1214----------------------------------|
A|-------)\--.-.-..911129---------------------------------------------|
E|---12\9--9-910129---------------------------------------------------|
Suggest correction
comments
print report bad tab
guest
You may want to rate the tab now too:
select rating
Wanna post a correction for this tab? Suggest correction