Oops, an error
Loading. Please wait.

Pretty Low Tab

451 views 18 this week
no commentswrite comment
1 2 3 4 5
3 more votes to show rating
add to favorites
launch autoscroll
font size
0
reset
how to read this tab
guitar tuner
Autoscroll
slow
fast
+/-
esc
set tempo
stop
Help us to improve Ultimate-Guitar.com Take our survey!
×
Author
Difficulty
Tuning
novice
D A D G B E
DROP D


[Intro]

e|---------------------------|
B|---------------------------|
G|----------3----------------|
D|-0-2-x-x--3--4--2b-2b-2b---|
A|-0-2-x-x--1--4--2b-2b-2b---|
D|-0-2-x-x-----2--2b-2b-2b---|
       . .      

 Repeat 2 Times!
e|---------------------------------------------------------------------------------------|
B|---------------------------------------------------------------------------------------|
G|---------------------------------------------------------------------------------------|
D|-0--3--2--0--2---0--3--2--0--2---2-2-6---0--3--2--0--2---0--3--2--0--2--2s1------------|
A|-0--3--2--0--2---0--3--2--0--2---2-2-6---0--3--2--0--2---0--3--2--0--2--2s1------------|
D|-0--3--2--0--2---0--3--2--0--2---2-2-6---0--3--2--0--2---0--3--2--0--2--2s1------------|

e|---------------------------------------------------------------------|
B|---------------------------------------------------------------------|
G|---------------------------------------------------------------------|
D|-0--3--2--0--2---0--3--2--0--2---2-2-6---0--3--2--0--2--1------------|
A|-0--3--2--0--2---0--3--2--0--2---2-2-6---0--3--2--0--2--1------------|
D|-0--3--2--0--2---0--3--2--0--2---2-2-6---0--3--2--0--2--1------------|



************************************

| s slide
| b bend
| . palm mute
| x dead note

************************************
Suggest correction
Give kudos to tab author, rate the tab!
1 2 3 4 5
comments
print report bad tab
guest
You may want to rate the tab now too:
select rating
Wanna post a correction for this tab? Suggest correction