Oops, an error
Loading. Please wait.

Affected By Them Bass Tab

7 views 7 this week
no commentswrite comment
1 2 3 4 5
3 more votes to show rating
add to favorites
launch autoscroll
font size
0
reset
guitar tuner
Autoscroll
slow
fast
+/-
esc
set tempo
stop
Help us to improve Ultimate-Guitar.com Take our survey!
×
Author
Difficulty
novice
                             THE EXPLOITED - AFFECTED BY THEM

Tabbed by: Rottney (reconssuck)
E-mail: reconssuck@hotmail.de

Artist: The Exploited
Song: Affected By Them
Album: Beat The Bastards (1996)





[Main Riff] x8

G|---------------------------|--------------------------|
D|---------------------------|--------------------------|
A|-4--4-4-4-4-4-4-4-4-4-5--5-|-4--4-4-4-4-4--2--5--2----|
E|---------------------------|--------------------------|



[Chorus] x4

G|-------------|-------------|-------------|------------|
D|-------------|-------------|-------------|------------|
A|-7-9-9-9-9-9-|-7-9-9-9-9-9-|-7-9-9-9-9-9-|-5--7--5----|
E|-------------|-------------|-------------|------------|



[Main Riff] x6

G|---------------------------|--------------------------|
D|---------------------------|--------------------------|
A|-4--4-4-4-4-4-4-4-4-4-5--5-|-4--4-4-4-4-4--2--5--2----|
E|---------------------------|--------------------------|


[Chorus] x4

G|-------------|-------------|-------------|------------|
D|-------------|-------------|-------------|------------|
A|-7-9-9-9-9-9-|-7-9-9-9-9-9-|-7-9-9-9-9-9-|-5--7--5----|
E|-------------|-------------|-------------|------------|



[Main Riff] x12

G|---------------------------|--------------------------|
D|---------------------------|--------------------------|
A|-4--4-4-4-4-4-4-4-4-4-5--5-|-4--4-4-4-4-4--2--5--2----|
E|---------------------------|--------------------------|



[Chorus] x4

G|-------------|-------------|-------------|------------|
D|-------------|-------------|-------------|------------|
A|-7-9-9-9-9-9-|-7-9-9-9-9-9-|-7-9-9-9-9-9-|-5--7--5----|
E|-------------|-------------|-------------|------------|



[Main Riff] x12

G|---------------------------|--------------------------|
D|---------------------------|--------------------------|
A|-4--4-4-4-4-4-4-4-4-4-5--5-|-4--4-4-4-4-4--2--5--2----|
E|---------------------------|--------------------------|


[Chorus] x4

G|-------------|-------------|-------------|------------|
D|-------------|-------------|-------------|------------|
A|-7-9-9-9-9-9-|-7-9-9-9-9-9-|-7-9-9-9-9-9-|-5--7--5----|
E|-------------|-------------|-------------|------------|


[Main Riff] 

G|---------------------------|--------------------------|
D|---------------------------|--------------------------|
A|-4--4-4-4-4-4-4-4-4-4-5--5-|-4--4-4-4-4-4--2--5--2----|
E|---------------------------|--------------------------|

[End]

G|---------------------------|---------------------------|
D|---------------------------|---------------------------|
A|-4--4-4-4-4-4-4-4-4-4-5--5-|-4--4-4-4-4-4--2--5--2--4--|
E|---------------------------|---------------------------|



That's all
Enjoy and Rate
Suggest correction
Give kudos to tab author, rate the tab!
1 2 3 4 5
comments
print report bad tab
guest
You may want to rate the tab now too:
select rating
Wanna post a correction for this tab? Suggest correction