Oops, an error
Loading. Please wait.

Alternative Bass Tab

version 2
version 2

Whole song

Interactive

4,027 views 9 this week
1 commentread comment
1 2 3 4 5
x 7
add to favorites
launch autoscroll
font size
0
reset
guitar tuner
Autoscroll
slow
fast
+/-
esc
set tempo
stop
Help us to improve Ultimate-Guitar.com Take our survey!
×
Difficulty
intermediate
song starts with drums

then bass kicks in..
x11
G:---------------------------------------------------------------|
D:---------------------------------------------------------------|
A:-2222222-----------55555555------------------------------------|
E:-------33333----------------55555------------------------------|

after first chorus
x2
G:---------------------------------------------------------------|
D:---32-----------65---------------------------------------------|
A:-22-----------55-----------------------------------------------|
E:-------333----------7/55---------------------------------------|

Politicians what do they care..
x8
G:---------------------------------------------------------------|
D:---------------------------------------------------------------|
A:-2222222-----------55555555------------------------------------|
E:-------33333----------------55555------------------------------|
after chorus...

play through rest of song
G:---------------------------------------------------------------|
D:---32-----------65---------------------------------------------|
A:-22-----------55-----------------------------------------------|
E:-------333----------7/55---------------------------------------|

alternative! alternative!

this tab is perfect
-punktothec-

anarchychaospunx@yahoo.com
Suggest correction
comments
print report bad tab
1 comment total.
0 reply
Skankman82 461 Dec 13, 2015 04:23 PM

This bass tab of the song Alternative of the UK 82 band The Exploited has got wrong notes and is lack of formatting.

guest
You may want to rate the tab now too:
select rating
Wanna post a correction for this tab? Suggest correction