Oops, an error
Loading. Please wait.
We have an official Alternative tab made by UG professional guitarists. Check out the tab »
×
290 views 6 this week
1 commentread comment
1 2 3 4 5
2 more votes to show rating
add to favorites
×
Save as Personal and add changes to this tab that will be seen only by you. Learn more ›
×
You can save this tab as Personal to edit and correct it or add notes. All changes will be seen only by you. Learn more »
launch autoscroll
font size
0
reset
guitar tuner
edit
Autoscroll
slow
fast
+/-
esc
set tempo
stop
Author
Difficulty
Song: Alternative
Artist: Exploited, The 
Album: Troops Of Tomorrow
Genre: UK '82
Year: 1982

Hey guys! This is the bass tab of the song. There are also other version of that, but they are ALL
WRONG, man... this is the only to be 100% correct.
Anyway, enjoy the Exploited!

Riff 1:

G:-----------------------------------
D:-----------------------------------
A:---2-22222-------5-5555555---------
E:-----------33333-----------55555---

Riff 2:

G:---------------------------------
D:------4-------------7-4----------
A:---22---5----4-5-55--------4-5---
E:----------33------------55-------

Riff 3:

G:-----------------------------------
D:------4-------------7-4------------
A:---22---5----4-5-55--------4-5-2---
E:----------33------------55---------

The order is:
.Riff 1 x10
.Riff 2 x2
.Riff 1 x8
.Riff 2 x2
.Riff 1 x8
.Riff 2 x3
.Riff 3 x1





Tab by: mdc_ivan





            
            
Suggest correction
Creating personal tab
Creating personal tab
You can edit any tab online and save it as your Personal.

You can edit, replace or remove any tab part or add personal notes – all changes will be seen only by you.

Personal tabs can be accessed anytime from any device, even offline.
Learn more »
Give kudos to tab author, rate the tab!
1 2 3 4 5
comments
print report bad tab
1 comment total.
0 reply
Skankman82 461 Sep 26, 2015 05:05 AM

This bass tab is perfect!

guest
You may want to rate the tab now too:
select rating
Wanna post a correction for this tab? Suggest correction