Oops, an error
Loading. Please wait.

Dead Cities Tab

version 3
version 3

Whole song

Interactive

1,376 views 1 this week
no commentswrite comment
1 2 3 4 5
2 more votes to show rating
add to favorites
launch autoscroll
font size
0
reset
how to read this tab
guitar tuner
Autoscroll
slow
fast
+/-
esc
set tempo
stop
Help us to improve Ultimate-Guitar.com Take our survey!
×
Intro
E|-----------------|
B|-----------------|
G|-----------------|
D|--5555555555555--|
A|--5555555555555--|
E|--3333333333333--|

Verse
E|------------------------------------|
B|------------------------------------|
G|------------------------------------|
D|--55555-55555--33333--1010101010----|4X
A|--55555-55555--33333--1010101010----|
E|--33333-33333--11111---8-8-8-8-8----|

Chorus
E|-----------------------------------|
B|-----------------------------------|
G|-----------------------------------|
D|--55555-55555--1010101010--9-8-7---|2X
A|--55555-55555--1010101010--9-8-7---|
E|--33333-33333---8-8-8-8-8--7-6-5---|

Verse
E|------------------------------------|
B|------------------------------------|
G|------------------------------------|
D|--55555-55555--33333--1010101010----|4X
A|--55555-55555--33333--1010101010----|
E|--33333-33333--11111---8-8-8-8-8----|

Chorus
E|-----------------------------------|
B|-----------------------------------|
G|-----------------------------------|
D|--55555-55555--1010101010--9-8-7---|2X
A|--55555-55555--1010101010--9-8-7---|
E|--33333-33333---8-8-8-8-8--7-6-5---|

Bridge
E|----------------------------------------------------|
B|----------------------------------------------------|
G|----------------------------------------------------|
D|--12121212121212--10101010101010--9999999--5555555--|
A|--12121212121212--10101010101010--9999999--5555555--|
E|--10101010101010---8-8-8-8-8-8-8--7777777--3333333--|

E|---------------------------------------------------------|
B|---------------------------------------------------------|
G|---------------------------------------------------------|
D|--12121212121212--10101010101010--9999999--7-7-7-7-7-7---|
A|--12121212121212--10101010101010--9999999--7-7-7-7-7-7---|
E|--10101010101010---8-8-8-8-8-8-8--7777777--5-5-5-5-5-5---|

Verse
E|------------------------------------|
B|------------------------------------|
G|------------------------------------|
D|--55555-55555--33333--1010101010----|4X
A|--55555-55555--33333--1010101010----|
E|--33333-33333--11111---8-8-8-8-8----|

Chorus
E|-----------------------------------|
B|-----------------------------------|
G|-----------------------------------|
D|--55555-55555--1010101010--9-8-7---|2X
A|--55555-55555--1010101010--9-8-7---|
E|--33333-33333---8-8-8-8-8--7-6-5---|

Verse
E|------------------------------------|
B|------------------------------------|
G|------------------------------------|
D|--55555-55555--33333--1010101010----|4X
A|--55555-55555--33333--1010101010----|
E|--33333-33333--11111---8-8-8-8-8----|

Chorus
E|-----------------------------------|
B|-----------------------------------|
G|-----------------------------------|
D|--55555-55555--1010101010--9-8-7---|6X
A|--55555-55555--1010101010--9-8-7---|
E|--33333-33333---8-8-8-8-8--7-6-5---|

End
Chorus
E|----------|
B|----------|
G|----------|
D|--5-------|
A|--5-------|
E|--3-------|

Tab By Paulo Marasca Filho


Suggest correction
Give kudos to tab author, rate the tab!
1 2 3 4 5
comments
print report bad tab
guest
You may want to rate the tab now too:
select rating
Wanna post a correction for this tab? Suggest correction