Oops, an error
Loading. Please wait.

Free Flight Bass Tab

4 views 1 this week
no commentswrite comment
1 2 3 4 5
3 more votes to show rating
add to favorites
launch autoscroll
font size
0
reset
guitar tuner
Autoscroll
slow
fast
+/-
esc
set tempo
stop
Help us to improve Ultimate-Guitar.com Take our survey!
×
Author
Difficulty
novice
                             THE EXPLOITED - FREE FLIGHT

Tabbed by: Rottney (reconssuck)
E-mail: reconssuck@hotmail.de

Artist: The Exploited
Song: Free Flight
Album: Punks Not Dead (1981)



[Main Riff] x14

G|-----------|-----------|-----------|---------|
D|-----------|-----------|-----------|---------|
A|-----------|-----------|-----------|---------|
E|-0-0-0-0-0-|-0-0-0-0-0-|-0-0-0-0-0-|-2--3----|


[Verse] x12 (the [5] is occasionally played in the riff)

G|---------------------|------------|
D|---------------------|------------|
A|-5-7-7-7-[5]-7-7-7-7-|------------|
E|---------------------|-2--3--5----|


[Chorus] x3

G|---------|---------|---------|-------------|
D|---------|---------|---------|-------------|
A|---7-----|---5-----|---3-----|-------------|
E|-7---7-7-|-5---5-5-|-3---3-3-|-2--0--2-----|



[Verse] x8

G|---------------------|------------|
D|---------------------|------------|
A|-5-7-7-7-[5]-7-7-7-7-|------------|
E|---------------------|-2--3--5----|


[Chorus] x3

G|---------|---------|---------|-------------|
D|---------|---------|---------|-------------|
A|---7-----|---5-----|---3-----|-------------|
E|-7---7-7-|-5---5-5-|-3---3-3-|-2--0--2-----|



[Verse] x8

G|---------------------|------------|
D|---------------------|------------|
A|-5-7-7-7-[5]-7-7-7-7-|------------|
E|---------------------|-2--3--5----|



[Chorus] x3

G|---------|---------|---------|-------------|
D|---------|---------|---------|-------------|
A|---7-----|---5-----|---3-----|-------------|
E|-7---7-7-|-5---5-5-|-3---3-3-|-2--0--2-----|



[Main Riff] x12

G|-----------|-----------|-----------|---------|
D|-----------|-----------|-----------|---------|
A|-----------|-----------|-----------|---------|
E|-0-0-0-0-0-|-0-0-0-0-0-|-0-0-0-0-0-|-2--3----|


[End]


G|-------|-----|
D|-------|-----|
A|-------|-----|
E|-0-----|-0---|



That's all
Enjoy and Rate
Suggest correction
Give kudos to tab author, rate the tab!
1 2 3 4 5
comments
print report bad tab
guest
You may want to rate the tab now too:
select rating
Wanna post a correction for this tab? Suggest correction