Oops, an error
Loading. Please wait.

Fuck The System Bass Tab

2,688 views 3 this week
no commentswrite comment
1 2 3 4 5
1 last vote to show rating
add to favorites
launch autoscroll
font size
0
reset
guitar tuner
Autoscroll
slow
fast
+/-
esc
set tempo
stop
Help us to improve Ultimate-Guitar.com Take our survey!
×
THE EXPLOITED - FUCK THE SYSTEM
FUCK THE SYSTEM: 2003
TABBED BY: JOSH HUGHFF
TUNING: STANDARD E.A.D.G


INTRO: X4 (AFTER A MAN HAS A FIT FOR 42 SECONDS PLAY THIS)

G:|------------------------------------|
D:|2--------2--------2-----------------|
A:|--444444---444444---444444---444444-|
E:|---------------------------4--------|

VERSE: X4

G:|------------------------------------|
D:|2--------2--------2-----------------|
A:|--444444---444444---444444---444444-|
E:|---------------------------4--------|

CHORUS : THERES 4 PARTS TO THIS
PT 1
G:|------------------------------------------------------------------------|
D:|------------------------------------------------------------------------|
A:|------------------------------------------------------------------------|
E:|2-222222-2-222222-2-222222-2-222222-2-222222-2-222222-5--5--5--8--8--8--|

PT 2
G:|------------------------------------|
D:|2--------2--------2-----------------|
A:|--444444---444444---444444---444444-|
E:|---------------------------4--------|

PT 3
G:|------------------------------------------------------------------------|
D:|------------------------------------------------------------------------|
A:|------------------------------------------------------------------------|
E:|2-222222-2-222222-2-222222-2-222222-2-222222-2-222222-5--5--5--8--8--8--|

PT 4: X4
G:|---------------------------------------|
D:|---------------------2-222222-5-555555-|
A:|-4-444444--4-444444--------------------|
E:|---------------------------------------|

THATS ALL YOU NEED TO PLAY THIS SONG. 

STRUCTURE:

INTRO: X4
VERSE: X4
CHORUS:
VERSE: X4
CHORUS:
SOLO 1: PLAY VERSE RIFF X4
VERSE: X4
CHORUS:
SOLO 2: PLAY VERSE RIFF X8
VERSE: X4
CHORUS:

THATS IT, ITS A LONG SONG BUT THERE IT IS.

RED ARMY PUNX

http://www.myspace.com/redarmyofficial
Suggest correction
Give kudos to tab author, rate the tab!
1 2 3 4 5
comments
print report bad tab
guest
You may want to rate the tab now too:
select rating
Wanna post a correction for this tab? Suggest correction