Oops, an error
Loading. Please wait.

Fuck The System Tab

8,181 views 1 this week
1 commentread comment
1 2 3 4 5
1 last vote to show rating
add to favorites
launch autoscroll
font size
0
reset
how to read this tab
guitar tuner
Autoscroll
slow
fast
+/-
esc
set tempo
stop
Help us to improve Ultimate-Guitar.com Take our survey!
×
Author
Band - The Exploited
Song - Fuck the System
Album - Fuck the System
Tuning - Standard (E A D G B e)

. = palm mute
* = harmonic
/ = slide down

Intro
(0:00 - 0:42) non-stop screaming

  (0:42 - 0:48)
||-----------------7*----||
||-----------------------||
||-6----6-6-6-6----------||
||-6----6-6-6-6----------||
||-4----4-4-4-4----------||
||-----------------------||
        . . .
Verse (0:49 - 1:06) x6
||-------------------------||
||-------------------------||
||-9-666-9-666-9-------666-||
||-9-666-9-666-9-666-6-666-||
||-7-444-7-444-7-444-6-444-||
||-------------------4-----||

Chorus (1:07 - 1:24)
||----------------------------------------------------------|
||----------------------------------------------------------|
||----------------------------------------------------------|
||-2-4-44444-4-44444-4-44444-4-44444-4-44444-4-44444-7--10--|
||-2-4-44444-4-44444-4-44444-4-44444-4-44444-4-44444-7--10--|
||-0-2-22222-2-22222-2-22222-2-22222-2-22222-2-22222-5--8---|

-------------------------------------------------|
-------------------------------------------------|
-9-666-9-666-9-------666-9-666-9-666-9-666---666-|
-9-666-9-666-9-666-6-666-9-666-9-666-9-666-6-666-|
-7-444-7-444-7-444-6-444-7-444-7-444-7-444-6-444-|
-------------------4-----------------------4-----|

----------------------------------------------------------||
----------------------------------------------------------||
----------------------------------------------------------||
-2-4-44444-4-44444-4-44444-4-44444-4-44444-4-44444-7--10--||
-2-4-44444-4-44444-4-44444-4-44444-4-44444-4-44444-7--10--||
-0-2-22222-2-22222-2-22222-2-22222-2-22222-2-22222-5--8---||

  (1:25 - 1:35) x4
||--------------------------------||
||--------------------------------||
||-6-66666-6-66666-9-9-9-12-12-12-||
||-6-66666-6-66666-9-9-9-12-12-12-||
||-4-44444-4-44444-7-7-7-10-10-10-||
||--------------------------------||

Verse (1:36 - 1:47) x4
||-------------------------||
||-------------------------||
||-9-666-9-666-9-------666-||
||-9-666-9-666-9-666-6-666-||
||-7-444-7-444-7-444-6-444-||
||-------------------4-----||

Chorus (1:48 - 2:05)
||----------------------------------------------------------|
||----------------------------------------------------------|
||----------------------------------------------------------|
||-2-4-44444-4-44444-4-44444-4-44444-4-44444-4-44444-7--10--|
||-2-4-44444-4-44444-4-44444-4-44444-4-44444-4-44444-7--10--|
||-0-2-22222-2-22222-2-22222-2-22222-2-22222-2-22222-5--8---|

-------------------------------------------------|
-------------------------------------------------|
-9-666-9-666-9-------666-9-666-9-666-9-666---666-|
-9-666-9-666-9-666-6-666-9-666-9-666-9-666-6-666-|
-7-444-7-444-7-444-6-444-7-444-7-444-7-444-6-444-|
-------------------4-----------------------4-----|

----------------------------------------------------------||
----------------------------------------------------------||
----------------------------------------------------------||
-2-4-44444-4-44444-4-44444-4-44444-4-44444-4-44444-7--10--||
-2-4-44444-4-44444-4-44444-4-44444-4-44444-4-44444-7--10--||
-0-2-22222-2-22222-2-22222-2-22222-2-22222-2-22222-5--8---||

  (2:06 - 2:16) x4
||--------------------------------||
||--------------------------------||
||-6-66666-6-66666-9-9-9-12-12-12-||
||-6-66666-6-66666-9-9-9-12-12-12-||
||-4-44444-4-44444-7-7-7-10-10-10-||
||--------------------------------||

Solo (2:17 - 2:28)[Sorry, I havent figured this one out yet, but I will soon]

Verse (2:29 - 2:40) x4
||-------------------------||
||-------------------------||
||-9-666-9-666-9-------666-||
||-9-666-9-666-9-666-6-666-||
||-7-444-7-444-7-444-6-444-||
||-------------------4-----||

Chorus (2:41 - 2:57)
||----------------------------------------------------------|
||----------------------------------------------------------|
||----------------------------------------------------------|
||-2-4-44444-4-44444-4-44444-4-44444-4-44444-4-44444-7--10--|
||-2-4-44444-4-44444-4-44444-4-44444-4-44444-4-44444-7--10--|
||-0-2-22222-2-22222-2-22222-2-22222-2-22222-2-22222-5--8---|

-------------------------------------------------|
-------------------------------------------------|
-9-666-9-666-9-------666-9-666-9-666-9-666---666-|
-9-666-9-666-9-666-6-666-9-666-9-666-9-666-6-666-|
-7-444-7-444-7-444-6-444-7-444-7-444-7-444-6-444-|
-------------------4-----------------------4-----|

----------------------------------------------------------||
----------------------------------------------------------||
----------------------------------------------------------||
-2-4-44444-4-44444-4-44444-4-44444-4-44444-4-44444-7--10--||
-2-4-44444-4-44444-4-44444-4-44444-4-44444-4-44444-7--10--||
-0-2-22222-2-22222-2-22222-2-22222-2-22222-2-22222-5--8---||

  (2:58 - 3:08) x4
||--------------------------------||
||--------------------------------||
||-6-66666-6-66666-9-9-9-12-12-12-||
||-6-66666-6-66666-9-9-9-12-12-12-||
||-4-44444-4-44444-7-7-7-10-10-10-||
||--------------------------------||

Solo (3:09 - 3:32)[Sorry, I havent figured this one out eithet, but once again, I will soon]

Verse (3:33 - 3:44) x4
||-------------------------||
||-------------------------||
||-9-666-9-666-9-------666-||
||-9-666-9-666-9-666-6-666-||
||-7-444-7-444-7-444-6-444-||
||-------------------4-----||

Chorus (3:45 - 4:01)
||----------------------------------------------------------|
||----------------------------------------------------------|
||----------------------------------------------------------|
||-2-4-44444-4-44444-4-44444-4-44444-4-44444-4-44444-7--10--|
||-2-4-44444-4-44444-4-44444-4-44444-4-44444-4-44444-7--10--|
||-0-2-22222-2-22222-2-22222-2-22222-2-22222-2-22222-5--8---|

-------------------------------------------------|
-------------------------------------------------|
-9-666-9-666-9-------666-9-666-9-666-9-666---666-|
-9-666-9-666-9-666-6-666-9-666-9-666-9-666-6-666-|
-7-444-7-444-7-444-6-444-7-444-7-444-7-444-6-444-|
-------------------4-----------------------4-----|

----------------------------------------------------------||
----------------------------------------------------------||
----------------------------------------------------------||
-2-4-44444-4-44444-4-44444-4-44444-4-44444-4-44444-7--10--||
-2-4-44444-4-44444-4-44444-4-44444-4-44444-4-44444-7--10--||
-0-2-22222-2-22222-2-22222-2-22222-2-22222-2-22222-5--8---||

  (4:02 - 4:12) x4
||--------------------------------||
||--------------------------------||
||-6-66666-6-66666-9-9-9-12-12-12-||
||-6-66666-6-66666-9-9-9-12-12-12-||
||-4-44444-4-44444-7-7-7-10-10-10-||
||--------------------------------||

(4:13 - 4:15)
 ||-------||
 ||-------||
 ||-6/----||
 ||-6/----||
 ||-4/----||
 ||-------||
Suggest correction
Give kudos to tab author, rate the tab!
1 2 3 4 5
comments
print report bad tab
1 comment total.
0 reply
Fender52 288 Feb 22, 2011 06:05 PM

I'm pretty sure that in the intro and every other time it occurs in the song it's G5 not G#5

guest
You may want to rate the tab now too:
select rating
Wanna post a correction for this tab? Suggest correction