Oops, an error
Loading. Please wait.

Fucking Liar Bass Tab

800 views 3 this week
no commentswrite comment
1 2 3 4 5
please rate
add to favorites
launch autoscroll
font size
0
reset
guitar tuner
Autoscroll
slow
fast
+/-
esc
set tempo
stop
Help us to improve Ultimate-Guitar.com Take our survey!
×
Author
-------------------------------------------------------------------------------
			     Fucking Liar - The Exploited
-------------------------------------------------------------------------------

Tabbed By : Bernie93
e-mail: dylanob93@hotmail.com

Tuning: standard

the bass in this song is pretty much the same as the guitar so it isn't hard to work out what it is,
and oh yes, you have to strum fast


Intro x1
G|---------------------------------------------------------------------------|
D|---------------------------------------------------------------------------|
A|---------------------------------------------------------------------------|
E|-3-------3-3-------3-------3-3-1/------------------------------------------|
slide up into the verse

verse x12
G|---------------------------------------------------------------------------|
D|----------0----------------------------------------------------------------|
A|-------------3--1----------------------------------------------------------|
E|-3333333-------------------------------------------------------------------|

chorus x12
G|---------------------------------------------------------------------------|
D|---------------------------------------------------------------------------|
A|---------1111111---------3333333-------------------------------------------|
E|-3333333---------1111111---------------------------------------------------|


verse  x12
chorus x4
verse  x48 (a lot i know but is obvious when to cut back into the chorus)
chorus x4
verse  x7

outro
(pretty much the verse except for one note)
G|---------------------------------------------------------------------------|
D|----------0----------------------------------------------------------------|
A|-------------3--1----------------------------------------------------------|
E|-3333333------------3-------------------------------------------------------|

| /  slide up

Suggest correction
Give kudos to tab author, rate the tab!
1 2 3 4 5
comments
print report bad tab
guest
You may want to rate the tab now too:
select rating
Please do not post tabs as comments. Select "correction" instead!