Oops, an error
Loading. Please wait.

Law For The Rich bass

22 views 1 this week
no commentswrite comment
1 2 3 4 5
3 more votes to show rating
add to favorites
×
Save as Personal and add changes to this tab that will be seen only by you. Learn more ›
×
You can save this tab as Personal to edit and correct it or add notes. All changes will be seen only by you. Learn more »
launch autoscroll
font size
0
reset
guitar tuner
edit
Autoscroll
slow
fast
+/-
esc
set tempo
stop
Author
Difficulty
                             THE EXPLOITED - LAW FOR THE RICH

Tabbed by: Rottney (reconssuck)
E-mail: reconssuck@hotmail.de

Artist: The Exploited
Song: Law For The Rich
Album: Fuck The System (2002)





[Main Riff] x8

G|----------------|---------------|-----------------|--------------|
D|----------------|---------------|-2---------------|--------------|
A|-0--0-0-0-0-0-0-|-0-0-0-0-0-0-0-|---0-0-0-0-0-0-0-|-1-3-3--------|
E|----------------|---------------|-----------------|--------------|


[Chorus] x2

G|-------------|-------------|-------------|--------|
D|-------------|-------------|-------------|--------|
A|-------------|-------------|-1-1-1-1-1-1-|--------|
E|-0-0-0-0-0-0-|-3-3-3-3-3-3-|-------------|-0------|

[Chorus Variation]
                                            (not too sure about this fill)
G|-------------|-------------|-------------|----------|
D|-------------|-------------|-------------|----------|
A|-------------|-------------|-1-1-1-1-1-1-|---2------|
E|-0-0-0-0-0-0-|-3-3-3-3-3-3-|-------------|-0---3-1--|


[Chorus] 

G|-------------|-------------|-------------|--------|
D|-------------|-------------|-------------|--------|
A|-------------|-------------|-1-1-1-1-1-1-|--------|
E|-0-0-0-0-0-0-|-3-3-3-3-3-3-|-------------|-0------|


[Main Riff] x8

G|----------------|---------------|-----------------|--------------|
D|----------------|---------------|-2---------------|--------------|
A|-0--0-0-0-0-0-0-|-0-0-0-0-0-0-0-|---0-0-0-0-0-0-0-|-1-3-3--------|
E|----------------|---------------|-----------------|--------------|


[Chorus] x2

G|-------------|-------------|-------------|--------|
D|-------------|-------------|-------------|--------|
A|-------------|-------------|-1-1-1-1-1-1-|--------|
E|-0-0-0-0-0-0-|-3-3-3-3-3-3-|-------------|-0------|

[Chorus Variation]

G|-------------|-------------|-------------|----------|
D|-------------|-------------|-------------|----------|
A|-------------|-------------|-1-1-1-1-1-1-|---2------|
E|-0-0-0-0-0-0-|-3-3-3-3-3-3-|-------------|-0---3-1--|


[Chorus] 

G|-------------|-------------|-------------|--------|
D|-------------|-------------|-------------|--------|
A|-------------|-------------|-1-1-1-1-1-1-|--------|
E|-0-0-0-0-0-0-|-3-3-3-3-3-3-|-------------|-0------|



[Main Riff] x12

G|----------------|---------------|-----------------|--------------|
D|----------------|---------------|-2---------------|--------------|
A|-0--0-0-0-0-0-0-|-0-0-0-0-0-0-0-|---0-0-0-0-0-0-0-|-1-3-3--------|
E|----------------|---------------|-----------------|--------------|


[Chorus] x2

G|-------------|-------------|-------------|--------|
D|-------------|-------------|-------------|--------|
A|-------------|-------------|-1-1-1-1-1-1-|--------|
E|-0-0-0-0-0-0-|-3-3-3-3-3-3-|-------------|-0------|

[Chorus Variation]

G|-------------|-------------|-------------|----------|
D|-------------|-------------|-------------|----------|
A|-------------|-------------|-1-1-1-1-1-1-|---2------|
E|-0-0-0-0-0-0-|-3-3-3-3-3-3-|-------------|-0---3-1--|


[Chorus] 

G|-------------|-------------|-------------|--------|
D|-------------|-------------|-------------|--------|
A|-------------|-------------|-1-1-1-1-1-1-|--------|
E|-0-0-0-0-0-0-|-3-3-3-3-3-3-|-------------|-0------|


[Main Riff] x16

G|----------------|---------------|-----------------|--------------|
D|----------------|---------------|-2---------------|--------------|
A|-0--0-0-0-0-0-0-|-0-0-0-0-0-0-0-|---0-0-0-0-0-0-0-|-1-3-3--------|
E|----------------|---------------|-----------------|--------------|



[Chorus] x2

G|-------------|-------------|-------------|--------|
D|-------------|-------------|-------------|--------|
A|-------------|-------------|-1-1-1-1-1-1-|--------|
E|-0-0-0-0-0-0-|-3-3-3-3-3-3-|-------------|-0------|

[Chorus Variation]

G|-------------|-------------|-------------|----------|
D|-------------|-------------|-------------|----------|
A|-------------|-------------|-1-1-1-1-1-1-|---2------|
E|-0-0-0-0-0-0-|-3-3-3-3-3-3-|-------------|-0---3-1--|


[Chorus] 

G|-------------|-------------|-------------|--------|
D|-------------|-------------|-------------|--------|
A|-------------|-------------|-1-1-1-1-1-1-|--------|
E|-0-0-0-0-0-0-|-3-3-3-3-3-3-|-------------|-0------|



[Main Riff] x4

G|----------------|---------------|-----------------|--------------|
D|----------------|---------------|-2---------------|--------------|
A|-0--0-0-0-0-0-0-|-0-0-0-0-0-0-0-|---0-0-0-0-0-0-0-|-1-3-3--------|
E|----------------|---------------|-----------------|--------------|


[End]

G|--------|
D|--------|
A|-0------|
E|--------|


            
            
Suggest correction
Creating personal tab
Creating personal tab
You can edit any tab online and save it as your Personal.

You can edit, replace or remove any tab part or add personal notes – all changes will be seen only by you.

Personal tabs can be accessed anytime from any device, even offline.
Learn more »
Give kudos to tab author, rate the tab!
1 2 3 4 5
comments
print report bad tab
guest
You may want to rate the tab now too:
select rating
Wanna post a correction for this tab? Suggest correction