Oops, an error
Loading. Please wait.

Lie To Me Tab

705 views 1 this week
1 commentread comment
1 2 3 4 5
2 more votes to show rating
add to favorites
launch autoscroll
font size
0
reset
how to read this tab
guitar tuner
Autoscroll
slow
fast
+/-
esc
set tempo
stop
Help us to improve Ultimate-Guitar.com Take our survey!
×
Author
----------------------------------------------------------------------------
                             LIE TO ME - The Exploited
----------------------------------------------------------------------------

My first tab, seems pretty accurate to me. 

Intro x4
e|-----------------------| 
B|-----------------------| 
G|-------44-4------------| 
D|-33-3--44-4--66-6--86--|
A|-33-3--22-2--66-6--86--| 
E|-11-1--------44-4--64--| 

Verse x4
e|-----------------------| 
B|-----------------------| 
G|-------44-4------------| 
D|-33-3--44-4--66-6--86--|
A|-33-3--22-2--66-6--86--| 
E|-11-1--------44-4--64--| 

Chorus x4
e|-----------------------| 
B|-----------------------| 
G|-7-------33-3-5-7------| 
D|-7-77-7--33-3-5-7------|
A|-5-77-7--11-1-3-5------| 
E|---55-5----------------| 

(1:04 - 1:15) Slow down and palm mute verse. 



These are the main riffs played throughout the song, solo is too difficult for me to tab.
Strumming is easy to figure out, just listen to it.

Please e-mail me at plastic-surgery-disaster@hotmail.com to correct any mistakes.
Suggest correction
Give kudos to tab author, rate the tab!
1 2 3 4 5
comments
print report bad tab
1 comment total.
0 reply
TerrorShredder 41 Nov 24, 2015 11:42 PM

e|-----------------------|
B|-----------------------|
G|-----------------------|
D|-33-3--44-4--66-6--86--|
A|-33-3--22-2--66-6--86--|
E|-11-1--22-4--44-4--64--|
Verse x4
e|-----------------------|
B|-----------------------|
G|-----------------------|
D|-33-3--44-4--66-6--86--|
A|-33-3--22-2--66-6--86--|
E|-11-1--22-4--44-4--64--|
Chorus x4
e|-----------------------|
B|-----------------------|
G|-8-------44-4-6-8------|
D|-8-88-8--44-4-6-8------|
A|-6-88-8--22-2-4-6------|
E|---66-6----------------|
Correction by Terrorshredder

I emailed you the tab too. Taking a closer listen, these corrections seem more correct to me, but you wrote out a generally good tab.

guest
You may want to rate the tab now too:
select rating
Wanna post a correction for this tab? Suggest correction