Oops, an error
Loading. Please wait.

Uk 82 bass

1,139 views 3 this week
no commentswrite comment
1 2 3 4 5
2 more votes to show rating
add to favorites
×
Save as Personal and add changes to this tab that will be seen only by you. Learn more ›
×
You can save this tab as Personal to edit and correct it or add notes. All changes will be seen only by you. Learn more »
launch autoscroll
font size
0
reset
guitar tuner
edit
Autoscroll
slow
fast
+/-
esc
set tempo
stop
THE EXPLOITED - UK 82
TROOPS OF TOMORROW: 1982
TABBED BY: JOSH HUGHFF
TUNING: STANDARD E.A.D.G


INTRO PT 1:

G:|--------------------|
D:|--------------------|
A:|--------------------|
E:|----------------3-5-|

INTRO PT 2: X2
G:|------------------------------------------------------------------------|
D:|------------------------------------------------------------------------|
A:|3-333333-3-333333-3-333333-3-333333-----------------3-----------------2-|
E:|------------------------------------5-5555-3-5-5555---5-5555-3-5-5555---|

VERSE: X2

G:|------------------------------------------------------------------------|
D:|------------------------------------------------------------------------|
A:|33333333333333333333333333333333333-----------------3-----------------2-|
E:|------------------------------------5-5555-3-5-5555---5-5555-3-5-5555---|

GAP:

G:|------------------------------------------------------------------------|
D:|------------------------------------------------------------------------|
A:|------------------------------------------------------------------------|
E:|1-111111-1-111111-1-111111-1-111111-3-333333-3-333333-3-333333-3-333333-|


STRUCTURE:

INTRO PT 1:
INTRO PT 2: X2
VERSE: X2
GAP:
INTRO PT 1:
INTRO PT 2: X2
VERSE: X2
GAP
INTRO PT 1:
INTRO PT 2: X2
VERSE: X2
GAP
INTRO PT 1:
INTRO PT 2: X2
VERSE: X2
GAP

THATS IT, ONE OF THE BEST PUNK ANTHEMS OF THE 'UK 82' MOVEMENT BY FAR!

RED ARMY PUNX

http://www.myspace.com/redarmyofficial
Suggest correction
Creating personal tab
Creating personal tab
You can edit any tab online and save it as your Personal.

You can edit, replace or remove any tab part or add personal notes – all changes will be seen only by you.

Personal tabs can be accessed anytime from any device, even offline.
Learn more »
Give kudos to tab author, rate the tab!
1 2 3 4 5
comments
print report bad tab
guest
Wanna post a correction for this tab? Suggest correction