Oops, an error
Loading. Please wait.

A Poor Mans Memory Tab

version 2
version 2

Whole song

Interactive

679 views 1 this week
no commentswrite comment
1 2 3 4 5
please rate
add to favorites
launch autoscroll
font size
0
reset
how to read this tab
guitar tuner
Autoscroll
slow
fast
+/-
esc
set tempo
stop
Help us to improve Ultimate-Guitar.com Take our survey!
×
[0:14]
|-------------|--------------------------|
|-------------|--------------------------|
|7~---9~-6~---|7~---9~-6----4~-7~---9~-6~|  
|-------------|--------------------------|  
|-------------|--------------------------|
|-------------|--------------------------|
                         x 2

|-------------|
|-------------|
|4~-7~---9~-6~| This is played until 2:12
|-------------|
|-------------|
|-------------|

[2:12]
|--------------------------------------|
|----------7---------------------------|
|4~-7~---9---9---7-6-------------------|
|--------------9-----7---7-------------|
|----------------------9---9/7~---7~---|
|--------------------------------------|
                x 2
[2:52]
|-------------|------|
|-------------|------|
|4~-7~---9~-6~|4~-2~-| 
|-------------|------|
|-------------|------|
|-------------|------|
      x2



Tabbed by Azzron
Suggest correction
Give kudos to tab author, rate the tab!
1 2 3 4 5
comments
print report bad tab
guest
You may want to rate the tab now too:
select rating
Please do not post tabs as comments. Select "correction" instead!