Oops, an error
Loading. Please wait.

A Song For Our Fathers Bass Tab

version 2
version 2

Whole song

Interactive

17,386 views 33 this week
1 commentread comment
1 2 3 4 5
excellent!
x 15
add to favorites
launch autoscroll
font size
0
reset
guitar tuner
Autoscroll
slow
fast
+/-
esc
set tempo
stop
Help us to improve Ultimate-Guitar.com Take our survey!
×
Author
Difficulty
advanced
Explosions In The Sky
How Strange, Innocence
A Song for Our Fathers

tabbed by Joe Martone (jjmartone@verizon.net)

Standard tuning.  A little tricky but this one is 100% correct.


A:

G||:-----7-----------11----|---11------9--------|--------7-----7-6---|---------------------------|
D||:-----------------------|------9------9----9-|--------------------|---------12----12-11----11-|
A||:-----------------------|-0------10-----10---|-10\7-7---7---------|-7/10-10----12-------12----|
E||:-7-7---7-7/10-10----10-|--------------------|------------7-----7-|---------------------------|


B:

G|-----7-----------11----|---11------9--------|--------7-----7-6---|---------------------------:||
D|-----------------------|------9------9----9-|--------------------|---------12----12-14-11----:||
A|-----------------------|-0------10-----10---|-10\7-7---7---------|-7/10-10----12----------12-:||
E|-7-7---7-7/10-10----10-|--------------------|------------7-----7-|---------------------------:||


C:

G||:-----11---9---7---|-------11----9----11----|-------11-----9------------|-------------9-6---:||
D||:------------------|------------------------|-------------------12------|---5-------7-----7-:||
A||:------------------|------------------------|-10-10----10----10----10\7-|-7---7-7/9---------:||
E||:-7-7----7---7---7-|-10-10----10---10----10-|---------------------------|-------------------:||

AB 3x
B
C  2x
AB 2x
C  2x
AB 6x

End with:

G|---||
D|---||
A|---||
E|-7-||
Suggest correction
What's this?
You can suggest a correction to this tab. Community and Mods will review your correction and vote to approve or reject it.
comments
print report bad tab
1 comment total.
0 reply
Shayo 131 wrote on February 26 2009, 04:47 am

awesome!

guest
You may want to rate the tab now too:
select rating
Please do not post tabs as comments. Select "correction" instead!