Oops, an error
Loading. Please wait.

A Song For Our Fathers Bass Tab

version 3
version 3

Whole song

Interactive

2,260 views 3 this week
no commentswrite comment
1 2 3 4 5
please rate
add to favorites
launch autoscroll
font size
0
reset
guitar tuner
Tab Pro tools
  • play this tab
  • loop segment
  • change instrument
  • show fretboard
  • metronome
×
Best way to learn
"A Song For Our Fathers"
Autoscroll
slow
fast
+/-
esc
set tempo
stop
Contributor
Tabbed By : jaronthebassist

                          A Song For Our Fathers                           


                                                      Explosions In The Sky
Bass



      Q    Q    Q    Q          Q     Q     Q     Q     
G||-------------7---------|----------------11----------|
D||*----------------------|----------------------------|
A||*----------------------|----------------------------|
E||---7----7---------7----|--7g10----10----------10----|


  Q     Q    Q     Q       Q    Q     Q    Q        E   E  Q    Q    Q     
-------11---------------|--9--------------------|---------------7---------|
-------------9----------|-------9----------9----|-------------------------|
--0---------------10----|------------10---------|--10s--7--7---------7----|
------------------------|-----------------------|-------------------------|


  Q    Q    Q    Q          Q     Q     Q     Q     
-------7----6---------|----------------------------|
----------------------|----------------12----------|
----------------------|--7g10----10----------12----|
--7--------------7----|----------------------------|


   Q     Q     Q     Q        Q    Q    Q    Q     
---------------------------|------------7---------|
--12----11----------11\----|----------------------|
--------------12-----------|----------------------|
---------------------------|--7----7---------7----|


     Q     Q     Q     Q       Q     Q    Q     Q     
----------------11----------|-------11---------------|
----------------------------|-------------9----------|
----------------------------|--0---------------10----|
--7g10----10----------10----|------------------------|


  Q    Q     Q    Q        E   E  Q    Q    Q       Q    Q    Q    Q     
--9--------------------|---------------7---------|-------7----6---------|
-------9----------9----|-------------------------|----------------------|
------------10---------|--10s--7--7---------7----|----------------------|
-----------------------|-------------------------|--7--------------7----|


     Q     Q     Q     Q        Q     Q     Q     Q     3x
----------------------------|---------------------------||
----------------12----------|--12----14----11----------*||
--7g10----10----------12----|--------------------12----*||
----------------------------|---------------------------||


  Q    Q    Q    Q          Q     Q     Q     Q     
------------7---------|----------------11----------|
----------------------|----------------------------|
----------------------|----------------------------|
--7----7---------7----|--7g10----10----------10----|


  Q     Q    Q     Q       Q    Q     Q    Q        E   E  Q    Q    Q     
-------11---------------|--9--------------------|---------------7---------|
-------------9----------|-------9----------9----|-------------------------|
--0---------------10----|------------10---------|--10s--7--7---------7----|
------------------------|-----------------------|-------------------------|


  Q    Q    Q    Q          Q     Q     Q     Q     
-------7----6---------|----------------------------|
----------------------|----------------12----------|
----------------------|--7g10----10----------12----|
--7--------------7----|----------------------------|


   Q     Q     Q     Q         Q    Q     Q    Q     
--------------------------||-------------11---------|
--12----14----11----------||*-----------------------|
--------------------12----||*-----------------------|
--------------------------||---7----7----------7----|


  Q    Q    Q    Q        Q     Q     Q     Q     
--9---------7---------|--------------11----------|
----------------------|--------------------------|
----------------------|--------------------------|
-------7---------7----|--10----10----------10----|


  Q     Q     Q     Q        Q     Q     Q     Q     
--9----------11----------|--------------11----------|
-------------------------|--------------------------|
-------------------------|--10----10----------10----|
-------10----------10----|--------------------------|


  Q     Q     Q     Q       Q    Q    Q     Q       Q    Q    Q    Q       
--9----------------------|-----------------------|-------9----6----------||
-------------12----------|-------5---------------|--7--------------7----*||
-------10----------10----|--7---------7s----9----|----------------------*||
-------------------------|-----------------------|-----------------------||


   Q    Q    Q    Q          Q     Q     Q     Q     
-------------7---------|----------------11----------|
*----------------------|----------------------------|
*----------------------|----------------------------|
---7----7---------7----|--7g10----10----------10----|


  Q     Q    Q     Q       Q    Q     Q    Q        E   E  Q    Q    Q     
-------11---------------|--9--------------------|---------------7---------|
-------------9----------|-------9----------9----|-------------------------|
--0---------------10----|------------10---------|--10s--7--7---------7----|
------------------------|-----------------------|-------------------------|


  Q    Q    Q    Q          Q     Q     Q     Q     
-------7----6---------|----------------------------|
----------------------|----------------12----------|
----------------------|--7g10----10----------12----|
--7--------------7----|----------------------------|


   Q     Q     Q     Q        Q    Q    Q    Q     
---------------------------|------------7---------|
--12----11----------11\----|----------------------|
--------------12-----------|----------------------|
---------------------------|--7----7---------7----|


     Q     Q     Q     Q       Q     Q    Q     Q     
----------------11----------|-------11---------------|
----------------------------|-------------9----------|
----------------------------|--0---------------10----|
--7g10----10----------10----|------------------------|


  Q    Q     Q    Q        E   E  Q    Q    Q       Q    Q    Q    Q     
--9--------------------|---------------7---------|-------7----6---------|
-------9----------9----|-------------------------|----------------------|
------------10---------|--10s--7--7---------7----|----------------------|
-----------------------|-------------------------|--7--------------7----|


     Q     Q     Q     Q        Q     Q     Q     Q       
----------------------------|---------------------------||
----------------12----------|--12----14----11----------*||
--7g10----10----------12----|--------------------12----*||
----------------------------|---------------------------||


   Q    Q     Q    Q       Q    Q    Q    Q        Q     Q     Q     Q     
-------------11---------|--9---------7---------|--------------11----------|
*-----------------------|----------------------|--------------------------|
*-----------------------|----------------------|--------------------------|
---7----7----------7----|-------7---------7----|--10----10----------10----|


  Q     Q     Q     Q        Q     Q     Q     Q     
--9----------11----------|--------------11----------|
-------------------------|--------------------------|
-------------------------|--10----10----------10----|
-------10----------10----|--------------------------|


  Q     Q     Q     Q       Q    Q    Q     Q       Q    Q    Q    Q       
--9----------------------|-----------------------|-------9----6----------||
-------------12----------|-------5---------------|--7--------------7----*||
-------10----------10----|--7---------7s----9----|----------------------*||
-------------------------|-----------------------|-----------------------||


   Q    Q    Q    Q          Q     Q     Q     Q     
-------------7---------|----------------11----------|
*----------------------|----------------------------|
*----------------------|----------------------------|
---7----7---------7----|--7g10----10----------10----|


  Q     Q    Q     Q       Q    Q     Q    Q        E   E  Q    Q    Q     
-------11---------------|--9--------------------|---------------7---------|
-------------9----------|-------9----------9----|-------------------------|
--0---------------10----|------------10---------|--10s--7--7---------7----|
------------------------|-----------------------|-------------------------|


  Q    Q    Q    Q          Q     Q     Q     Q     
-------7----6---------|----------------------------|
----------------------|----------------12----------|
----------------------|--7g10----10----------12----|
--7--------------7----|----------------------------|


   Q     Q     Q     Q        Q    Q    Q    Q     
---------------------------|------------7---------|
--12----11----------11\----|----------------------|
--------------12-----------|----------------------|
---------------------------|--7----7---------7----|


     Q     Q     Q     Q       Q     Q    Q     Q     
----------------11----------|-------11---------------|
----------------------------|-------------9----------|
----------------------------|--0---------------10----|
--7g10----10----------10----|------------------------|


  Q    Q     Q    Q        E   E  Q    Q    Q       Q    Q    Q    Q     
--9--------------------|---------------7---------|-------7----6---------|
-------9----------9----|-------------------------|----------------------|
------------10---------|--10s--7--7---------7----|----------------------|
-----------------------|-------------------------|--7--------------7----|


     Q     Q     Q     Q        Q     Q     Q     Q     6x
----------------------------|---------------------------||
----------------12----------|--12----14----11----------*||
--7g10----10----------12----|--------------------12----*||
----------------------------|---------------------------||


  W                  
-------------------||
-------------------||
-------------------||
--7----------------||




Duration Legend
---------------
W - whole
H - half
Q - quarter
E - 8th
S - 16th
T - 32nd
X - 64th
. - note dotted
|-n-|  - n-tuplets


Tablature Legend
----------------
L - tied note
x - dead note
g - grace note
(n) - ghost note
> - accentuded note
NH - natural harmonic
AH - artificial harmonic
TH - tapped harmonic
SH - semi harmonic
PH - pitch harmonic
h - hammer on
p - pull off
b - bend
br - bendRelease
pb - preBend
pbr - preBendRelease
brb - bendReleaseBend
\n/ - tremolo bar dip
\n - tremolo bar dive
-/n - tremolo bar Release up
/n\ - tremolo bar inverted dip
/n - tremolo bar return
-\n - tremolo bar Release down
S - shift slide
s - legato slide
/ -  slide into from below or out of upwards
\ -  slide into from above or out of downwards
~ - vibrato
W - wide vibrato
tr - trill
TP - tremolo picking
T - tapping
S - slap
P - pop
< - fade in
^ - brush up
v - brush down
comments
We did not receive enough feedback on this tab! Please rate:
print report bad tab
1 2 3 4 5
I want to post or [tab]
guest
You may want to rate the tab now too:
select rating
Please do not post tabs as comments. Select "correction" instead!