Oops, an error
Loading. Please wait.

Disintegration Anxiety tab

2,005 views 6 this week
no commentswrite comment
1 2 3 4 5
x 3
add to favorites
×
Save as Personal and add changes to this tab that will be seen only by you. Learn more ›
×
You can save this tab as Personal to edit and correct it or add notes. All changes will be seen only by you. Learn more »
launch autoscroll
font size
0
reset
how to read this tab
guitar tuner
edit
Autoscroll
slow
fast
+/-
esc
set tempo
stop
-------------------------------------------------------------------------------
                             Explosions in the Sky - Disintegration Anxiety
-------------------------------------------------------------------------------
Tabbed by: @mike_venusaur
E-mail: mikev423@gmail.com

Intro
e|---------------------------------------------------------------------------|
B|-------------------------14------------------------------------------------|
G|----------------13----13----13----13---------------------------------------|
D|-11--14--11--14----14----------14----14--11--14--11----11------------------|
A|----------------------------------------------------11----11---------------|
E|---------------------------------------------------------------------------| x2

e|---------------------------------------------------------------------------|
B|-----------------------------------14--------------------------------------|
G|--------------------------13----13----13----13-----------------------------|
D|-----------------13----13----13----------13----13--------------------------|
A|--11--14--11--14----14----------------------------14--11--14---------------|
E|---------------------------------------------------------------------------| x2

Bass Part
e|---------------------------------------------------------------------------|
B|---------------------------------------------------------------------------|
G|---------------------------------------------------------------------------|
D|---------------------------------------------------------------------------|
A|---0h4h7p4h7p4--0h4h7p4h7p4--0h4h7p4---------------------------------------|
E|---------------------------------------------------------------------------| x2

e|---------------------------------------------------------------------------|
B|---------------------------------------------------------------------------|
G|---------------------------------------------------------------------------|
D|---------------------------------------------------------------------------|
A|---------------------------------------------------------------------------|
E|---0h4h7p4h7p4--0h4h7p4h7p4-0h4h7p4----------------------------------------| x2

First Chorus

Guitar 1
with Reverb and Overdrive
x3
e|---------------------------------------------------------------------------|
B|---------------------------------------------------------------------------|
G|---------------------------------------------------------------------------|
D|---------------------------------------------------------------------------|
A|--14-14-14-14-14-14-14-11-14-11----7-7-7-7-7-7-7-6-7-6---------------------|
E|---------------------------------------------------------------------------|

e|---------------------------------------------------------------------------|
B|---------------------------------------------------------------------------|
G|---------------------------------------------------------------------------|
D|---------------------------------------------------------------------------|
A|--14-14-14-14-14-14-14-11-14-11----7-7-7-7-7-7-7/-11-11--------------------|
E|---------------------------------------------------------------------------|

4th time
e|---------------------------------------------------------------------------|
B|---------------------------------------------------------------------------|
G|---------------------------------------------------------------------------|
D|---------------------------------------------------------------------------|
A|--7-7-7-7-7-7-7-11-11--------------7-7-7-7-7-7-7-11-11---------------------|
E|---------------------------------------------------------------------------|

e|---------------------------------------------------------------------------|
B|---------------------------------------------------------------------------|
G|---------------------------------------------------------------------------|
D|---------------------------------------------------------------------------|
A|--7-7-7-7-7-7-7----11--------------7-7-7-7-7-7-7/----2---------------------|
E|---------------------------------------------------------------------------|

Guitar 2 - Played with Delay & Whammy Pedal Octave Up
Trill
e|---------------------------------------------------------------------------|
B|---------------------------------------------------------------------------|
G|--11tr~------------------------------------------------------2tr--1--------|
D|---------------------------------------------------------------------------|
A|---------------------------------------------------------------------------|
E|---------------------------------------------------------------------------|

Played into the Chorus
e|---------------------------------------------------------------------------|
B|---------------------------------------------12tr------------12tr~---------|
G|--11tr-------------------9tr--------------------------9tr------------------|
D|---------------------------------------------------------------------------|
A|---------------------------------------------------------------------------|
E|---------------------------------------------------------------------------|

Verse

Guitar 1
x3
e|---------------------------------------------------------------------------|
B|---------------------------------------------------------------------------|
G|---------------------------------------------------------------------------|
D|---------------------------------------------------------------------------|
A|--11--11/--------6--6--------------7--7/----------2--2/--------------------|
E|---------------------------------------------------------------------------|

e|---------------------------------------------------------------------------|
B|---------------------------------------------------------------------------|
G|---------------------------------------------------------------------------|
D|---------------------------------------------------------------------------|
A|--11--11/--------6--6--------------7--7/----------9--9---------------------|
E|---------------------------------------------------------------------------|

Last time
e|---------------------------------------------------------------------------|
B|---------------------------------------------------------------------------|
G|---------------------------------------------------------------------------|
D|---------------------------------------------------------------------------|
A|--11--11/--------6--6--------------7--7/----------2--2/--------------------|
E|---------------------------------------------------------------------------|

e|---------------------------------------------------------------------------|
B|---------------------------------------------------------------------------|
G|---------------------------------------------------------------------------|
D|---------------------------------------------------------------------------|
A|--11--11/--------6--6-------------14-14-14-14-14---------------------------|
E|---------------------------------------------------------------------------|

Guitar 2
Crescendo the strumming until the verse ends
e|---------------------------------------------------------------------------|
B|--------------12-12-12-12-12-12-12-12--------------------------------------|
G|--13-13-13-13-13-13-13-13-13-13-13-13--------------------------------------|
D|--13-13-13-13-13-13-13-13-13-13-13-13--------------------------------------|
A|--11-11-11-11-11-11-11-11-11-11-11-11--------------------------------------|
E|---------------------------------------------------------------------------|


Second Chorus

Guitar 1
x3
e|---------------------------------------------------------------------------|
B|---------------------------------------------------------------------------|
G|---------------------------------------------------------------------------|
D|---------------------------------------------------------------------------|
A|--14-14-14-14-14-14-14-11-14-11----7-7-7-7-7-7-7-6-7-6---------------------|
E|---------------------------------------------------------------------------|

e|---------------------------------------------------------------------------|
B|---------------------------------------------------------------------------|
G|---------------------------------------------------------------------------|
D|---------------------------------------------------------------------------|
A|--14-14-14-14-14-14-14-11-14-11----7-7-7-7-7-7-7/-11-11--------------------|
E|---------------------------------------------------------------------------|

4th time
e|---------------------------------------------------------------------------|
B|---------------------------------------------------------------------------|
G|---------------------------------------------------------------------------|
D|---------------------------------------------------------------------------|
A|--7-7-7-7-7-7-7-11-11--------------7-7-7-7-7-7-7-11-11---------------------|
E|---------------------------------------------------------------------------|


e|---------------------------------------------------------------------------|
B|---------------------------------------------------------------------------|
G|---------------------------------------------------------------------------|
D|---------------------------------------------------------------------------|
A|--7-7-7-7-7-7-7----11--------------7-7-7-7-7-7-7/----2---------------------|
E|---------------------------------------------------------------------------|

Guitar 2
Played throughout second chorus, crescendo the strumming again for the last chord
e|---------------------------------------------------------------------------|
B|--12tr---------------------------------------------------------------------|
G|-----------------------------------13tr-----------------------------13~----|
D|--------------------------------------------------------------------13~----|
A|--------------------------------------------------------------------11~----|
E|---------------------------------------------------------------------------|


Bridge

Guitar 1
w/Volume Pedal fade in notes
e|---------------------------------------------------------------------------|
B|---------------------------------------------------------------------------|
G|--13----11----9~-----------4-------9----8--4--8~----13---------------------|
D|---------------------------------------------------------------------------|
A|---------------------------------------------------------------------------|
E|---------------------------------------------------------------------------|

e|---------------------------------------------------------------------------|
B|---------------------------------------------------------------------------|
G|--11----9----8~------------4~----------------------------------------------|
D|---------------------------------------------------------------------------|
A|---------------------------------------------------------------------------|
E|---------------------------------------------------------------------------|

Guitar 2
Strum at 4th measures, crescendo into chord. By the end of the bridge, strum chord continuously
into start of third chorus
e|---------------------------------------------------------------------------|
B|---------------------------------------------------------------------------|
G|----13~--------------------------------------------------------------------|
D|----13~--------------------------------------------------------------------|
A|----11~--------------------------------------------------------------------|
E|---------------------------------------------------------------------------|


Third Chorus

Guitar 1
x3
e|---------------------------------------------------------------------------|
B|---------------------------------------------------------------------------|
G|---------------------------------------------------------------------------|
D|---------------------------------------------------------------------------|
A|--14-14-14-14-14-14-14-11-14-11----7-7-7-7-7-7-7-6-7-6---------------------|
E|---------------------------------------------------------------------------|

e|---------------------------------------------------------------------------|
B|---------------------------------------------------------------------------|
G|---------------------------------------------------------------------------|
D|---------------------------------------------------------------------------|
A|--14-14-14-14-14-14-14-11-14-11----7-7-7-7-7-7-7/-11-11--------------------|
E|---------------------------------------------------------------------------|

4th time
e|---------------------------------------------------------------------------|
B|---------------------------------------------------------------------------|
G|---------------------------------------------------------------------------|
D|---------------------------------------------------------------------------|
A|--7-7-7-7-7-7-7-11-11--------------7-7-7-7-7-7-7-11-11---------------------|
E|---------------------------------------------------------------------------|

e|---------------------------------------------------------------------------|
B|---------------------------------------------------------------------------|
G|---------------------------------------------------------------------------|
D|---------------------------------------------------------------------------|
A|--7-7-7-7-7-7-7----11--------------7-7-7-7-7-7-7/----2---------------------|
E|---------------------------------------------------------------------------|

Verse

Guitar 1
x3
e|---------------------------------------------------------------------------|
B|---------------------------------------------------------------------------|
G|---------------------------------------------------------------------------|
D|---------------------------------------------------------------------------|
A|--11--11/--------6--6--------------7--7/----------2--2/--------------------|
E|---------------------------------------------------------------------------|

e|---------------------------------------------------------------------------|
B|---------------------------------------------------------------------------|
G|---------------------------------------------------------------------------|
D|---------------------------------------------------------------------------|
A|--11--11/--------6--6--------------7--7/----------9--9---------------------|
E|---------------------------------------------------------------------------|

Last time
e|---------------------------------------------------------------------------|
B|---------------------------------------------------------------------------|
G|---------------------------------------------------------------------------|
D|---------------------------------------------------------------------------|
A|--11--11/--------6--6--------------7--7/----------2--2/--------------------|
E|---------------------------------------------------------------------------|

e|---------------------------------------------------------------------------|
B|---------------------------------------------------------------------------|
G|---------------------------------------------------------------------------|
D|---------------------------------------------------------------------------|
A|--11--11/--------6--6-------------14-14-14-14-14---------------------------|
E|---------------------------------------------------------------------------|

Guitar 2
Whammy pedal off
x4
e|--12---12-12-12------12---12-12-12-----------------------------------------|
B|-----------------------------------------12---12-12-12---------------------|
G|-----------------13-----------------13------------------13----14----13-----|
D|---------------------------------------------------------------------------|
A|---------------------------------------------------------------------------|
E|---------------------------------------------------------------------------|


            
            
Suggest correction
Creating personal tab
Creating personal tab
You can edit any tab online and save it as your Personal.

You can edit, replace or remove any tab part or add personal notes – all changes will be seen only by you.

Personal tabs can be accessed anytime from any device, even offline.
Learn more »
Give kudos to tab author, rate the tab!
1 2 3 4 5
comments
print report bad tab
guest
You may want to rate the tab now too:
select rating
Wanna post a correction for this tab? Suggest correction