Oops, an error
Loading. Please wait.

First Breath After Coma Bass Tab

version 1
version 1

Whole song

Interactive

6,295 views 3 this week
no commentswrite comment
1 2 3 4 5
1 last vote to show rating
add to favorites
launch autoscroll
font size
0
reset
guitar tuner
Autoscroll
slow
fast
+/-
esc
set tempo
stop
Help us to improve Ultimate-Guitar.com Take our survey!
×
Author
INSTRUMENT: BASS
TABBED: GARO MARTINEZ
BAND: EXPLOSIONS IN THE SKY
SONG: FIRST BREATH AFTER COMA
ALBUM: THE EARTH IS NOT A COLD DEAD PLACE
TUNNING: STANDAR

 INTRO [0:35]

|------------------------------------------------------------|
|------------------------------------------------------------|
|---0~-----2~-----4~-----7~-----0~------2~------4~------7~---|
|------------------------------------------------------------|


 [1:07]

|-----------------------------------------------------------------------|
|-----------------------------------------------------------------------|
|---0-0-0-0-0-0-0-0-2-2-2-2-2-2-2-2-4-4-4-4-4-4-4-4-4-7-7-7-7-7-7-9-9---|
|-----------------------------------------------------------------------|


                                                                    [1:39]

|-----------------------------------------------------------------------------------|
|-----------------------------------------------------------------------------------|
|---0-0-0-0-0-0-0-0-2-2-2-2-2-2-2-2-4-4-4-4-4-4-4-4-4-7-7-7-7-7-7-9-----------------|
|-------------------------------------------------------------------5~--4~--5~--0~--|


                                     [2:26]

|-----------------------------------------------------------------------------------|
|-----------------------------------------------------------------------------------|
|-------------------------------------7-7-7-7--2-2-2-2--4-4-4-4---2-2-2-2-----------|
|---5~--4~--5~--0~----5~--4~--5~--7~------------------------------------------------|

|--------------------------------------------------------------------------------------------|
|-------------------------------------------9--7--9-----4--2--4-----6--4--2-----4--2--4------|
|---7-7-7-7--2-2-2-2--4-4-4-4--2-2-2-2--7------------2-----------4-----------2-----------0~--|
|--------------------------------------------------------------------------------------------|

   [3:17]

|--------------------------------------------------------------------------------|
|--------------------------------------------------------------------------------|
|--------------------------------------------------------------------------------|
|---0--0--0--0--2--2--2--2--4--4--4--4--2--2--2--2--5--5--5--5--0--0--0--0--5--5-|

-------------------|
-------------------|
-------------------|
5--5--7--7--7--7---|

  [3:48]

|--------------------------------------------------------------------------------|
|--------------------------------------------------------------------------------|
|--------------------------------------------------------------------------------|
|---0--0--0--0--2--2--2--2--4--4--4--4--2--2--2--2--5--5--5--5--0--0--0--0--5--5-|

-----------------------|
-----------------------|
-----------------------|
5--5--7--7--7--7----0~-|
Suggest correction
Give kudos to tab author, rate the tab!
1 2 3 4 5
comments
print report bad tab
guest
You may want to rate the tab now too:
select rating
Wanna post a correction for this tab? Suggest correction