Oops, an error
Loading. Please wait.

First Breath After Coma Bass Tab

version 2
version 2

Whole song

Interactive

3,490 views 9 this week
no commentswrite comment
1 2 3 4 5
please rate
add to favorites
launch autoscroll
font size
0
reset
guitar tuner
Autoscroll
slow
fast
+/-
esc
set tempo
stop
Help us to improve Ultimate-Guitar.com Take our survey!
×
Author
Tabbed by: jaronthebassist

                                    First Breath After Coma                                       


                                                                             Explosions in the Sky
Bass



       ^                                                                               
       Q     Q     Q     Q     6x    S  S  S  S  S  S  S  S  S  S  S  S  S  S  S  S  3x
G||---14----14----14----14-----||---14-14-14-14-14-14-14-14-14-14-14-14-14-14-14-14--||
D||*--------------------------*||*--------------------------------------------------*||
A||*--------------------------*||*--------------------------------------------------*||
E||----------------------------||----------------------------------------------------||


   W                   W                   W                   W                   
--------------------|-------------------|-------------------|--------------------||
*-------------------|-------------------|-------------------|-------------------*||
*-------------------|-------------------|-------------------|-------------------*||
---5----------------|--7----------------|--9----------------|--0-----------------||


  H.           E  E       E  E  E  E  E  E  E  E     E  E  E  E  E  E  E  E   
---------------------||---------------------------|--------------------------|
---------------------||*--------------------------|--------------------------|
---------------------||*--------7-----4-----5-----|--------9-----7-----9-----|
--0------------L--0--||---5--5-----5-----5-----5--|--7--7-----7-----7-----7--|


  E  E   E  E  E  E  E  E     E  E   E  E   E  E   E  E        W                 
---------------------------|------------------------------||--------------------|
---------------------------|-----------------------------*||*-------------------|
--------11-----9-----7-----|--------11-----12-----14-----*||*-------------------|
--9--9------9-----9-----9--|--0--0------0------0------0---||---5----------------|


  W                   W                   W                 3x  W                 
-------------------|-------------------|--------------------||-------------------|
-------------------|-------------------|-------------------*||-------------------|
-------------------|-------------------|-------------------*||-------------------|
--4----------------|--5----------------|--0-----------------||--7----------------|


     E.   S  E.   S  E.   S  E.   S    E.  S E.  S E.  S E.  S    E.  S E.  S E.  S E.  S  
|-----------------------------------|--------------------------|--------------------------|
|*----------------------------------|--------------------------|--------------------------|
|*----------------------------------|--------------------------|--------------------------|
|---12---12-12---12-12---12-12---12-|--7---7-7---7-7---7-7---7-|--9---9-9---9-9---9-9---9-|


  E.  S E.  S E.  S E.  S       E.   S  E.   S  E.   S  E.   S    E.  S E.  S E.  S E.  S  
---------------------------||----------------------------------|--------------------------|
--------------------------*||----------------------------------|--------------------------|
--------------------------*||----------14---14-12---12-14---14-|--------9---9-7---7-9---9-|
--7---7-7---7-7---7-7---7--||--12---12-------------------------|--7---7-------------------|


  E.  S  E.   S E.  S E.  S    E.  S E.  S E.  S E.  S    W                 
----------------------------|--------------------------|-------------------|
----------------------------|--------------------------|-------------------|
--------11---11-9---9-7---7-|--------9---9-7---7-9---9-|-------------------|
--9---9---------------------|--7---7-------------------|--5----------------|


    E.  S E.  S E.  S E.  S    E.  S E.  S E.  S E.  S    E.  S E.  S E.  S E.  S  
|---------------------------|--------------------------|--------------------------|
|*--------------------------|--------------------------|--------------------------|
|*--------------------------|--------------------------|--------------------------|
|---0---0-0---0-0---0-0---0-|--2---2-2---2-2---2-2---2-|--4---4-4---4-4---4-4---4-|


  E.  S E.  S E.  S E.  S    E.  S E.  S E.  S E.  S    E.  S E.  S E.  S E.  S  
--------------------------|--------------------------|--------------------------|
--------------------------|--------------------------|--------------------------|
--------------------------|--------------------------|--------------------------|
--2---2-2---2-2---2-2---2-|--5---5-5---5-5---5-5---5-|--0---0-0---0-0---0-0---0-|


  E.  S E.  S E.  S E.  S    E.  S E.  S E.  S E.  S      W                   W                 
--------------------------|---------------------------||-------------------|-------------------|
--------------------------|--------------------------*||-------------------|-------------------|
--------------------------|--------------------------*||-------------------|-------------------|
--5---5-5---5-5---5-5---5-|--7---7-7---7-7---7-7---7--||--0----------------|--L----------------|


  W                   W                   W                   W                 
-------------------|-------------------|-------------------|-------------------|
-------------------|-------------------|-------------------|-------------------|
-------------------|-------------------|-------------------|-------------------|
-------------------|-------------------|-------------------|-------------------|


  W                   W                   W                   W                 
-------------------|-------------------|-------------------|-------------------|
-------------------|-------------------|-------------------|-------------------|
-------------------|-------------------|-------------------|-------------------|
-------------------|-------------------|-------------------|-------------------|


    W                   W                   W                   W                   
|--------------------|-------------------|-------------------|--------------------||
|*-------------------|-------------------|-------------------|-------------------*||
|*-------------------|-------------------|-------------------|-------------------*||
|---2----------------|--7----------------|--5----------------|--0-----------------||


   H.           Q       W                   H.           Q       W                 
---------------------|-------------------|--------------------|-------------------|
*--------------------|-------------------|--------------------|-------------------|
*--------------------|-------------------|--------------------|-------------------|
---5------------5----|--L----------------|--5------------5----|--L----------------|


  H.           Q       W                   H.           Q       W                 
--------------------|-------------------|--------------------|-------------------|
--------------------|-------------------|--------------------|-------------------|
--------------------|-------------------|--------------------|-------------------|
--2------------2----|--L----------------|--5------------5----|--L----------------|


  Q    Q    Q    Q       Q    Q    Q    Q       Q    Q    Q    Q       W                 
----------------------|----------------------|----------------------|-------------------|
----------------------|----------------------|----------------------|-------------------|
--5----5----5----5----|--9----9----9----9----|--7----7----7----7----|-------------------|
----------------------|----------------------|----------------------|--5----------------|


  W                 4x  E.  S E.  S E.  S E.  S    E.  S E.  S E.  S E.  S  
--------------------||--------------------------|--------------------------|
-------------------*||--------------------------|--------------------------|
-------------------*||--5---5-5---5-5---5-5---5-|--9---9-9---9-9---9-9---9-|
--L-----------------||--------------------------|--------------------------|


  E.  S E.  S E.  S E.  S      E.  S E.  S E.  S E.  S 14x  W                  
--------------------------||----------------------------||-------------------||
--------------------------||*--------------------------*||-------------------||
--7---7-7---7-7---7-7---7-||*--------------------------*||-------------------||
--------------------------||---5---5-5---5-5---5-5---5--||--5----------------||




Duration Legend
---------------
W - whole
H - half
Q - quarter
E - 8th
S - 16th
T - 32nd
X - 64th
. - note dotted
|-n-|  - n-tuplets


Tablature Legend
----------------
L - tied note
x - dead note
g - grace note
(n) - ghost note
> - accentuded note
NH - natural harmonic
AH - artificial harmonic
TH - tapped harmonic
SH - semi harmonic
PH - pitch harmonic
h - hammer on
p - pull off
b - bend
br - bendRelease
pb - preBend
pbr - preBendRelease
brb - bendReleaseBend
\n/ - tremolo bar dip
\n - tremolo bar dive
-/n - tremolo bar Release up
/n\ - tremolo bar inverted dip
/n - tremolo bar return
-\n - tremolo bar Release down
S - shift slide
s - legato slide
/ -  slide into from below or out of upwards
\ -  slide into from above or out of downwards
~ - vibrato
W - wide vibrato
tr - trill
TP - tremolo picking
T - tapping
S - slap
P - pop
< - fade in
^ - brush up
v - brush down
Suggest correction new What's this?
You can suggest a correction to this tab. Community and Mods will review your correction and vote to approve or reject it.
comments
We did not receive enough feedback on this tab! Please rate:
print report bad tab
1 2 3 4 5
guest
You may want to rate the tab now too:
select rating
Please do not post tabs as comments. Select "correction" instead!