Oops, an error
Loading. Please wait.

First Breath After Coma Tab

version 2
version 2

Whole song

Interactive

14,750 views 48 this week
1 commentread comment
1 2 3 4 5
excellent!
x 5
add to favorites
launch autoscroll
font size
0
reset
how to read this tab
guitar tuner
Tab Pro tools
  • play this tab
  • loop segment
  • change instrument
  • show fretboard
  • metronome
×
Best way to learn
"First Breath After Coma"
Autoscroll
slow
fast
+/-
esc
set tempo
stop
Contributor
This song is great, and ever since i heard it, i wanted to learn it. I hope it is 
uselful to you too! This song is only tabbed up to about 4:20.

Standard Tuning: EBGDAE

E|-17(x24)----5-5-5-5-5-5-5---4-4-4-4-4-4-4---7-7-7-7-7-7-7---9-9-9-9-9-9-9|
B|----------5---------------4----------------------------------------------|
G|------------------------------------------6------------------------------|
D|-----------------------------------------------------------7-------------|
A|-------------------------------------------------------------------------|
E|-------------------------------------------------------------------------|

E|------------5-5-5-5-5-5-5---4-4-4-4-4-4-4---7-7-7-7-7-7-7---9-9-9-9-9-9-9|
B|----------5---------------4----------------------------------------------|
G|------------------------------------------6------------------------------|
D|-----------------------------------------------------------7-------------|
A|-------------------------------------------------------------------------|
E|-------------------------------------------------------------------------|

E|-------------------------------------------------------------------------|
B|-5-5-5-5-5-5-5-5--4-4-4-4-4-4-4-4--9-5-5-5-5-5-9-5-9---------------------|
G|-------------------------------------------------------------------------|
D|-------------------------------------------------------------------------|
A|-------------------------------------------------------------------------|
E|-------------------------------------------------------------------------|

E|-------------------------------------------------------------------------|
B|-5-5-5-5-5-5-5-5--4-4-4-4-4-4-4-4--9-5-5-5-5-5-9-5-9-5-5-5-5-5-5---------|
G|-------------------------------------------------------------------------|
D|-------------------------------------------------------------------------|
A|-------------------------------------------------------------------------|
E|-------------------------------------------------------------------------|

E|-------------------------------------------------------------------------|
B|-----5-5-----7-7-------4-4----7-7----5-5------7-7-------4----------------|
G|-6-------6---------4-------4------6-------6--------4--4---4---4----------|
D|---7-------7---------6-------6------7-------7--------6------6---6--------|
A|-------------------------------------------------------------------------|
E|-------------------------------------------------------------------------|

E|---------------------------------7---7-----------------------------------|
B|-10-9~-10-9~-10-9~-9-12-12-7~--7~--7~--7-10-10-5~-5-4~-4-5~-5-7-9-4~-4-5~|
G|-------------------------------------------------------------------------|
D|-------------------------------------------------------------------------|
A|-------------------------------------------------------------------------|
E|-------------------------------------------------------------------------|

E|---------------------------------7---7-----------------------------------|
B|-10-9~-10-9~-10-9~-9-12-12-7~--7~--7~--7-10-10-5~-5-4~-4-5~-5-7-9-4~-4-5~|
G|-------------------------------------------------------------------------|
D|-------------------------------------------------------------------------|
A|-------------------------------------------------------------------------|
E|-------------------------------------------------------------------------|

E|-------------------------------------------------------------------------|
B|--12(x4)--10(x4)--9(x4)--10(x4)--9(x4)--10(x4)--9(x8)--4(x16)-5(x32)-----|
D|-------------------------------------------------------------------------|
A|-------------------------------------------------------------------------|
E|-------------------------------------------------------------------------|

E|----------------------------------------------------7(x12)--5(x4)--4(x8)-|
B|--4(x4)--2(x4)--4(x4)--2(x4)--0(x16)--7(x8)--5(x16)----------------------|
G|-------------------------------------------------------------------------|
D|-------------------------------------------------------------------------|
A|-------------------------------------------------------------------------|
E|-------------------------------------------------------------------------|

E|-------7(x12)-5(x4)-4(x8)------7(x12)-5(x4)-4(x8)------7(x12)-5(x4)-4(x8)|
B|-4(x8)--------------------2(x8)------------------4(x8)-------------------|
G|-------------------------------------------------------------------------|
D|-------------------------------------------------------------------------|
A|-------------------------------------------------------------------------|
E|-------------------------------------------------------------------------|

E|-------------------------------------------------------------------------|
B|--12(x4)--10(x4)--9(x4)--10(x4)--9(x4)--10(x4)--9(x8)--4(x16)-5(x32)-----|
D|-------------------------------------------------------------------------|
A|-------------------------------------------------------------------------|
E|-------------------------------------------------------------------------|

E|----------------------------------------------------7(x12)--5(x4)--4(x8)-|
B|--4(x4)--2(x4)--4(x4)--2(x4)--0(x16)--7(x8)--5(x16)----------------------|
G|-------------------------------------------------------------------------|
D|-------------------------------------------------------------------------|
A|-------------------------------------------------------------------------|
E|-------------------------------------------------------------------------|

E|-------7(x12)-5(x4)-4(x8)------7(x12)-5(x4)-4(x8)------7(x12)-5(x4)-4(x8)|
B|-4(x8)--------------------2(x8)------------------4(x8)-------------------|
G|-------------------------------------------------------------------------|
D|-------------------------------------------------------------------------|
A|-------------------------------------------------------------------------|
E|-------------------------------------------------------------------------|

/ = slide up
\ = slide down
h = hammer on 
p = pull off
b = bend
r = release
x = muted string
t = tap (with finger or pick)
~ = vibrato
comments
print report bad tab
1 comment total.
0 reply
cmpunk14 wrote on November 17 2011, 06:18 pm

Thanks men :)
it was a very great song but the intro sounds a little bit estrange :/
but great job bro!!
:D 10 Stars!!!

I want to post or [tab]
guest
You may want to rate the tab now too:
select rating
Please do not post tabs as comments. Select "correction" instead!