Oops, an error
Loading. Please wait.

First Breath After Coma tab

version 3
version 3

Whole song

Interactive

1,878 views 48 this week
no commentswrite comment
1 2 3 4 5
x 4
add to favorites
×
Save as Personal and add changes to this tab that will be seen only by you. Learn more ›
×
You can save this tab as Personal to edit and correct it or add notes. All changes will be seen only by you. Learn more »
launch autoscroll
font size
0
reset
how to read this tab
guitar tuner
edit
Autoscroll
slow
fast
+/-
esc
set tempo
stop
Author
Difficulty
FIRST BREATH AFTER COMA
Explosions in the sky


Tabbed by: Matteo Del Vecchio
E-mail: matteodv80@gmail.com

Check out my video: https://www.youtube.com/watch?v=x2J8doke8C4

Tuning: standard
Key: E major
Tempo: 120 bpm approximately
Meter: 4/4 except for part F where: 
       3 measures in 4/4 + 1 measure in 2/4
       3 measures in 4/4
       3 measures in 4/4 + 1 measure in 2/4
       8 measures in 4/4



Munaf's part (delay set @ 1/2 note, 1 sec approximately)

Intro

e|-17----17----17----17----17----17-|
B|----------------------------------|
G|----------------------------------|
D|----------------------------------|
A|----------------------------------|
E|----------------------------------|


e|-17--17-17-17-17-17-17-(with-slight-variations)-|
B|------------------------------------------------|
G|------------------------------------------------|
D|------------------------------------------------|
A|------------------------------------------------|
E|------------------------------------------------|

Part A

e|-17--17-17-17--17-17-17--17-17-17—(for-16-times)-|
B|-------------------------------------------------|
G|-------------------------------------------------|
D|-------------------------------------------------|
A|-------------------------------------------------|
E|-------------------------------------------------|

then:

e|-17--17-17-17--17-17-17--17-17-17--17-17-17--17-17-17-|
B|------------------------------------------------------|
G|------------------------------------------------------|
D|------------------------------------------------------|
A|------------------------------------------------------|
E|------------------------------------------------------|


e|-17-17-17--17-17-17--17-17-17--17-17-17--17-17-17--17-17-|
B|---------------------------------------------------------|
G|---------------------------------------------------------|
D|---------------------------------------------------------|
A|---------------------------------------------------------|
E|---------------------------------------------------------|


e|-17--17-17-17--17-17-17--17-17-19--19-19-19--19-19-|
B|---------------------------------------------------|
G|---------------------------------------------------|
D|---------------------------------------------------|
A|---------------------------------------------------|
E|---------------------------------------------------|


e|-16--16-16-16--16-16-16--16-16-16--16-16-16--16-16-|
B|---------------------------------------------------|
G|---------------------------------------------------|
D|---------------------------------------------------|
A|---------------------------------------------------|
E|---------------------------------------------------|


e|-16--16-16-21--21-21-21--21-21-19--19-19-19—-19-19-|
B|---------------------------------------------------|
G|---------------------------------------------------|
D|---------------------------------------------------|
A|---------------------------------------------------|
E|---------------------------------------------------|


e|-19--19-19-19--19-19-19--19-19-19--19-19-17—-17-17-|
B|---------------------------------------------------|
G|---------------------------------------------------|
D|---------------------------------------------------|
A|---------------------------------------------------|
E|---------------------------------------------------|


e|-16--16-16-(for-2-times-and-then-ends-in-17)-|
B|---------------------------------------------|
G|---------------------------------------------|
D|---------------------------------------------|
A|---------------------------------------------|
E|---------------------------------------------|

Part B

e|------------------------------------------|
B|------------------------------------------|
G|-9--9-9-8/4----9--------------------------|
D|-----------------7-6-7/9----(for-2-times)-|
A|------------------------------------------|
E|------------------------------------------|

Part C (for 3 times)

e|-----------------------------------------------------|
B|-----------------------12-----12---------------------|
G|-9--9---9-8/11----14-13--13-13------------16-14-13/9-|
D|----------------------------------13-13/14-----------|
A|-----------------------------------------------------|
E|-----------------------------------------------------|

Part D

e|---------------------------------------------------------|
B|-12-12-12-12-10-10-10-10-9-9-9-9-9-9-9-9-9-9-9-9-9-9-9-9-|
G|---------------------------------------------------------|
D|---------------------------------------------------------|
A|---------------------------------------------------------|
E|---------------------------------------------------------|


e|---------------------------------------------------------|
B|-9-9-9-9/16-16-16-16-16-16-16-16-16-16-16-16-16-16-16-16-|
G|---------------------------------------------------------|
D|---------------------------------------------------------|
A|---------------------------------------------------------|
E|---------------------------------------------------------|


e|-------------------------------------------------|
B|-17-17-17-17-17-17-17-17-17-17-17-17-17-17-17-17-|
G|-------------------------------------------------|
D|-------------------------------------------------|
A|-------------------------------------------------|
E|-------------------------------------------------|


e|---------------------------------------------------------|
B|-12-12-12-12-10-10-10-10-9-9-9-9-9-9-9-9-9-9-9-9-9-9-9-9-|
G|---------------------------------------------------------|
D|---------------------------------------------------------|
A|---------------------------------------------------------|
E|---------------------------------------------------------|


e|---------------------------------------------------------|
B|-9-9-9-9/16-16-16-16-16-16-16-16-16-16-16-16-16-16-16-16-|
G|---------------------------------------------------------|
D|---------------------------------------------------------|
A|---------------------------------------------------------|
E|---------------------------------------------------------|


e|-------------------------------------------------|
B|-19-19-19-19-19-19-19-19-17-17-17-17-17-17-17-17-|
G|-------------------------------------------------|
D|-------------------------------------------------|
A|-------------------------------------------------|
E|-------------------------------------------------|


e|-------------------19-19-19-19-19-19-19-19-17-17-17-17-|
B|-21-21-21-21-21-21-------------------------------------|
G|-------------------------------------------------------|
D|-------------------------------------------------------|
A|-------------------------------------------------------|
E|-------------------------------------------------------|


e|-17-17-17-17-16-16-16-16-16-16-16-16-16-16-|
B|-------------------------------------------|
G|-------------------------------------------|
D|-------------------------------------------|
A|-------------------------------------------|
E|-------------------------------------------|


e|-------------------19-19-19-19-19-19-19-19-17-17-17-17-|
B|-16-16-16-16-16-16-------------------------------------|
G|-------------------------------------------------------|
D|-------------------------------------------------------|
A|-------------------------------------------------------|
E|-------------------------------------------------------|


e|-17-17-17-17-16-16-16-16-16-16-16-16-16-16-|
B|-------------------------------------------|
G|-------------------------------------------|
D|-------------------------------------------|
A|-------------------------------------------|
E|-------------------------------------------|


e|-------------------19-19-19-19-19-19-19-19-17-17-17-17-|
B|-14-14-14-14-14-14-------------------------------------|
G|-------------------------------------------------------|
D|-------------------------------------------------------|
A|-------------------------------------------------------|
E|-------------------------------------------------------|


e|-17-17-17-17-16-16-16-16-16-16-16-16-16-16-|
B|-------------------------------------------|
G|-------------------------------------------|
D|-------------------------------------------|
A|-------------------------------------------|
E|-------------------------------------------|


e|-------------------19-19-19-19-19-19-19-19-17-17-17-17-|
B|-16-16-16-16-16-16-------------------------------------|
G|-------------------------------------------------------|
D|-------------------------------------------------------|
A|-------------------------------------------------------|
E|-------------------------------------------------------|


e|-17-17-17-17-16-16-16-16-16-16-16-16-16-16-|
B|-------------------------------------------|
G|-------------------------------------------|
D|-------------------------------------------|
A|-------------------------------------------|
E|-------------------------------------------|

Repeat and last time ends in

e|-16----17p16-16-|
B|----------------|
G|----------------|
D|----------------|
A|----------------|
E|----------------|

Part E (doubled by another guitar played with e-bow + slide) 

e|----------------------------------------------------------|
B|----------------------------------------------------------|
G|----------------------------------------------------------|
D|----------------------------------------------------------|
A|-9-9-9-9-9-9-9-9-9-9-9-9-9-9-9-9-(played-for-12-measures)-|
E|----------------------------------------------------------|

Part F (doubled by another guritar played with e-bow + slide)

e|--------------------------------------------------|
B|--------------------------------------------------|
G|--------------------------------------------------|
D|--------------------------------------------------|
A|-7-7-7-7-7-7-7-7-7-7-7-7-7-7-7-7-(for-4-measures)-|
E|--------------------------------------------------|


e|--------------------------------------------------|
B|--------------------------------------------------|
G|--------------------------------------------------|
D|--------------------------------------------------|
A|-4-4-4-4-4-4-4-4-4-4-4-4-4-4-4-4-(for-3-measures)-|
E|--------------------------------------------------|


e|--------------------------------------------------|
B|--------------------------------------------------|
G|--------------------------------------------------|
D|--------------------------------------------------|
A|-7-7-7-7-7-7-7-7-7-7-7-7-7-7-7-7-(for-4-measures)-|
E|--------------------------------------------------|


e|---------------------------------------------------------|
B|---------------------------------------------------------|
G|---------------------------------------------------------|
D|---------------------------------------------------------|
A|-9-9-9-9-9-9-9-9-9-9-9-9-9-9-9-9-(for-2-measures-&-half)-|
E|---------------------------------------------------------|


e|-------------------------------------------------|
B|-------------------------------------------------|
G|-------------------------------------------------|
D|--------------------------------(for-2-measures)-|
A|-12-12-12-12-12-12-12-12-12-12-12-12-12-12-12-12-|
E|-------------------------------------------------|


e|-------------------------------------------------|
B|-------------------------------------------------|
G|-------------------------------------------------|
D|--------------------------(for-1-measure-&-half)-|
A|-14-14-14-14-14-14-14-14-14-14-14-14-14-14-14-14-|
E|-------------------------------------------------|


e|------12-12-10h9-9-(no-ebow)-|
B|-----------------------------|
G|-----------------------------|
D|-----------------------------|
A|-12--------------------------|
E|-----------------------------|

For 2 times (second time no e-bow) and then:

e|-10h9-9-(14-times)-----------------10-9-(7-times)-|
B|-------------------12-10-(6-times)----------------|
G|--------------------------------------------------|
D|--------------------------------------------------|
A|--------------------------------------------------|
E|--------------------------------------------------|


e|-7-5-(4-times)-9-7-(4-times)-|
B|-----------------------------|
G|-----------------------------|
D|-----------------------------|
A|-----------------------------|
E|-----------------------------|


e|-12-10-12-10-12-10-12-10/9-9-10h9-9-10h9-9-|
B|-------------------------------------------|
G|-------------------------------------------|
D|-------------------------------------------|
A|-------------------------------------------|
E|-------------------------------------------|


e|-12-12-10/9-9-10h9-9-10h9-9-|
B|----------------------------|
G|----------------------------|
D|----------------------------|
A|----------------------------|
E|----------------------------|

Repeat and then back in 4/4 with final part

Part G

e|-12-12-10/9-9-10h9-9-10h9-9-|
B|----------------------------|
G|----------------------------|
D|----------------------------|
A|----------------------------|
E|----------------------------|



Mark's part (delay set @ 1/8 note, 250 ms approximately)

Part A

e|-------------------------------------------------|
B|-------------------------------------------------|
G|-------------------------------------------------|
D|----14-14-14-14-14-14-14----13-13-13-13-13-13-13-|
A|-16----------------------14----------------------|
E|-------------------------------------------------|


e|-------------------------------------------------|
B|-------------------------------------------------|
G|-------------------------------------------------|
D|----16-16-16-16-16-16-16---18-18-18-18-18-18-18/-|
A|-------------------------------------------------|
E|-16----------------------0-----------------------|


e|--------------------------------------------------|
B|--------------------------------------------------|
G|--------------------------------------------------|
D|-/14-14-14-14-14-14-14-14-13-13-13-13-13-13-13-13-|
A|--------------------------------------------------|
E|--------------------------------------------------|


e|-------------------------------------------------|
B|-------------------------------------------------|
G|-13----------------------13----------------------|
D|----14-14-14-14-14-14-14----14-14-14-14-14-14-14-|
A|-------------------------------------------------|
E|-------------------------------------------------|


e|-------------------------------------------------|
B|-------------------------------------------------|
G|-------------------------------------------------|
D|----14-14-14-14-14-14-14----13-13-13-13-13-13-13-|
A|-16----------------------14----------------------|
E|-------------------------------------------------|


e|-------------------------------------------------|
B|-------------------------------------------------|
G|-------------------------------------------------|
D|----16-16-16-16-16-16-16---18-18-18-18-18-18-18/-|
A|-------------------------------------------------|
E|-16----------------------0-----------------------|


e|--------------------------------------------------|
B|--------------------------------------------------|
G|--------------------------------------------------|
D|-/14-14-14-14-14-14-14-14-13-13-13-13-13-13-13-13-|
A|--------------------------------------------------|
E|--------------------------------------------------|


e|-------------------------------------------------|
B|-------------------------------------------------|
G|-13----------------13----13----------------------|
D|----14-14-14-14-14----14---14-14-14-14-14-14-14/-|
A|-------------------------------------------------|
E|-------------------------------------------------|

Part B

3 times (last time without last 2 notes)

e|------------------------------------------|
B|------------------------------------------|
G|------9-9-------11-11------8-8------11-11-|
D|-11-------11----------9--------9----------|
A|---12--------12---------11-------11-------|
E|------------------------------------------|


e|-----------------------------------------|
B|-----------------------------------------|
G|------9-9-------11-11--------8-----------|
D|-11-------11----------9----9---9----9----|
A|---12--------12---------11-------11---11-|
E|-----------------------------------------|

Part C

3 times

e|----------------------------------------------------|
B|----------------------------------------------------|
G|-14-13-14-13-14-13-13-16-16----16----16-------16-16-|
D|----------------------------16----16----16-16-------|
A|----------------------------------------------------|
E|----------------------------------------------------|


e|----------------------------------------|
B|----------------------------------------|
G|----------------------13----------------|
D|-14-14-13-13-14-14-16----13-13-14-14-13-|
A|----------------------------------------|
E|----------------------------------------|

Part D

2 times

e|-------------------------------------------------------|
B|-------------------------------------------------------|
G|-------------------------------------------------------|
D|-14-14-14-14-14-14-14-14-14-14-14-14-14-14-14-14-14-14-|
A|-------------------------------------------------------|
E|-------------------------------------------------------|


e|-------------------------------------------|
B|-------------------------------------------|
G|-------------------------------------------|
D|-14-14-14-14-14-14-18-18-18-18-18-18-18-18-|
A|-------------------------------------------|
E|-------------------------------------------|


e|-------------------------------------------------|
B|-------------------------------------------------|
G|-16-16-16-16-16-16-16-16-16-16-16-16-16-16-16-16-|
D|-------------------------------------------------|
A|-------------------------------------------------|
E|-------------------------------------------------|


e|-------------------------------------------------|
B|-------------------------------------------------|
G|-16-16-16-16-16-16-16-16-16-16-16-16-16-16-16-16-|
D|-------------------------------------------------|
A|-------------------------------------------------|
E|-------------------------------------------------|


e|-------------------------------------------------|
B|-------------------------------------------------|
G|-21-21-21-21-21-21-21-21-21-21-21-21-21-21-21-21-|
D|-------------------------------------------------|
A|-------------------------------------------------|
E|-------------------------------------------------|


e|-------------------------------------------------|
B|-------------------------------------------------|
G|-21-21-21-21-18-18-18-18-21-21-21-21-20-20-20-20-|
D|-------------------------------------------------|
A|-------------------------------------------------|
E|-------------------------------------------------|


e|-------------------------------------------------|
B|-------------------------------------------------|
G|-16-16-16-16-16-16-16-16-16-16-16-16-16-16-16-16-|
D|-------------------------------------------------|
A|-------------------------------------------------|
E|-------------------------------------------------|


e|-------------------------------------------------|
B|-------------------------------------------------|
G|-16-16-16-16-16-16-16-16-16-16-16-16-16-16-16-16-|
D|-------------------------------------------------|
A|-------------------------------------------------|
E|-------------------------------------------------|


e|---------------------------------------------------------|
B|---------------------------------------------------------|
G|---------------------------------------------------------|
D|-2-2-2-2-2-2-2-2-2-2-2-2-2-2-2-2-2-2-2-2-2-2-2-2-2-2-2-2-|
A|---------------------------------------------------------|
E|---------------------------------------------------------|


e|---------------------------------------------------------|
B|---------------------------------------------------------|
G|---------------------------------------------------------|
D|-2-2-2-2-6-6-6-6-6-6-6-6-6-6-6-6-6-6-6-6-9-9-9-9-9-9-9-9-|
A|---------------------------------------------------------|
E|---------------------------------------------------------|


e|-------------------------------------------------|
B|-------------------------------------------------|
G|-------------------------------------------------|
D|-9-9-9-9-9-9-9-9-2-2-2-2-2-2-2-2-2-2-2-2-2-2-2-2-|
A|-------------------------------------------------|
E|-------------------------------------------------|


e|---------------------------------------------------------|
B|---------------------------------------------------------|
G|---------------------------------------------------------|
D|-2-2-2-2-2-2-2-2-2-2-2-2-2-2-2-2-11-11-11-11-11-11-11-11-|
A|---------------------------------------------------------|
E|---------------------------------------------------------|


e|---------------------------------------------------------|
B|---------------------------------------------------------|
G|---------------------------------------------------------|
D|-11-11-11-11-11-11-11-11-9-9-9-9-9-9-9-9-9-9-9-9-9-9-9-9-|
A|---------------------------------------------------------|
E|---------------------------------------------------------|

Part E (delay set @ 1 bar note, 2 sec approximately, with a lot of feedback)

e|---------------------|
B|---------------------|
G|----9-9----9----9----|
D|-11-----11---11---11-|
A|---------------------|
E|---------------------|


e|--------------------------------------------|
B|-10------------------10-9-------------------|
G|-------9----9----9-----------9----9----9----|
D|----11---11---11---11-----11---11---11---11-|
A|--------------------------------------------|
E|--------------------------------------------|

e|------------------------------------------|
B|-10-------------------9-------------------|
G|-------9----9----9---------9----9----9----|
D|----11---11---11---11---11---11---11---11-|
A|------------------------------------------|
E|------------------------------------------|


e|-17-17-17-17-17-17-17-17-16-16-16-16-16-16-16-16-|
B|-------------------------------------------------|
G|-------------------------------------------------|
D|-------------------------------------------------|
A|-------------------------------------------------|
E|-------------------------------------------------|

then start record a 4/4 with loop station and stop (it will serve later!)

Part F (no delay)

e|--------------------------------------------------------|
B|--------------------------------------------------------|
G|--------------------------------------------------------|
D|---19-18-21-19------19-18-19-21-------18-19-------21/19-|
A|-0----------------0----------------21-------21-19-------|
E|--------------------------------------------------------|


e|-----------------------------------7-------12-12-12-|
B|--------------------5------10-----------------------|
G|----------------------------------------------------|
D|---19-18-19-19--------------------------------------|
A|-0----------------5------9-------7------12----------|
E|----------------------------------------------------|


e|--------------------------------------------------------|
B|--------------------------------------------------------|
G|--------------------------------------------------------|
D|---19-18-21-19------19-18-19-21-------18-19-------21/19-|
A|-0----------------0----------------21-------21-19-------|
E|--------------------------------------------------------|


e|-------------------------------------7--------12-12-12-|
B|--------------------5-------10-------------------------|
G|-------------------------------------------------------|
D|---19-18-19-19-----------------------------------------|
A|-0----------------5-----5/9------9/7-----7/12----------|
E|-------------------------------------------------------|


e|--------------------------------------------------------|
B|--------------------------------------------------------|
G|--------------------------------------------------------|
D|---19-18-21-19------19-18-19-21-------18-19-------21/19-|
A|-0----------------0----------------21-------21-19-------|
E|--------------------------------------------------------|


e|-------------------------------------7--------12-12-12-|
B|--------------------5-------10-------------------------|
G|-------------------------------------------------------|
D|---19-18-19-19-----------------------------------------|
A|-0----------------5-----5/9------9/7-----7/12----------|
E|-------------------------------------------------------|

then pause for 11 measures and then playback in reverse the looped part adding distortion

Part G

A major with distortion and a lot of heart <3
 
e|-5-|
B|-5-|
G|-6-|
D|-7-|
A|-7-|
E|-5-|



Michael's part

Part A

with thumb

G|--------------------------------------|
D|--------------------------------------|
A|--------------------------------------|
E|-5----7----9----0----5----7----9----0-|

with pick (2 times)

G|---------------------------------------------------|
D|---------------------------------------------------|
A|-----7---7---6-------9---9---7-------11---11---9---|
E|-5-5---5---5---5-7-7---7---7---7-9-9----9----9---9-|


G|------------------|
D|-----9---9---11/--|
A|------------------|
E|-0-0---0---0----0-|

Part B

with thumb

G|----------------------------------------------------------|
D|----------------------------------------------------------|
A|----------------------------------------------------------|
E|-5----4----5----0----5----4----5----0----5----4----5----7-|

Part C

with pick

G|---------------------------------------------------------|
D|---------------------------------------------------------|
A|-7--7-7--7-7--7-7--7--2--2-2--2-2--2-2/4--4-4--4-4--4-4/-|
E|---------------------------------------------------------|


G|----------------------------------------------------------|
D|----------------------------------------------------------|
A|-/2--2-2--2-2--2-2--2--7--7-7--7-7--7-7/2--2-2--2-2--2-2/-|
E|----------------------------------------------------------|


G|--------------------------------------|
D|--------------------------------------|
A|/4--4-4--4-4--4-4/2--2-2--2-2--2-2--2-|
E|--------------------------------------|


G|------------------------------------------------------|
D|------9---7---9---------4---2---4---------6---4---2---|
A|-7--7---7---7---7--2--2---2---2---2--4--4---4---4---4-|
E|------------------------------------------------------|


G|--------------------|
D|------4---2---2-----|
A|-2--2---2---2---2-0-|
E|--------------------|

Part D

G|------------------------------------------|
D|-9--9-9--9-9--9-9--9----------------------|
A|-7--7-7--7-7--7-7--7--9--9-9--9-9--9-9—-9-|
E|----------------------7--7-7--7-7--7-7--7-|


G|------------------------------------------|
D|------------------------------------------|
A|-11-1111-1111-1111-11-9--9-9--9-9--9-9--9-|
E|-9--9-9--9-9--9-9--9--7--7-7--7-7--7-7--7-|


G|--------------------------------------------------|
D|-14--14-14--14-14--14-14--14--9--9-9--9-9--9-9--9-|
A|-12--12-12--12-12--12-12--12--7--7-7--7-7—-7-7--7-|
E|--------------------------------------------------|


G|--------------------------------------------------|
D|-14--14-14--14-14--14-14--14----------------------|
A|-12--12-12--12-12--12-12--12--9--9-9--9-9--9-9--9-|
E|------------------------------7--7-7--7-7--7-7—-7-|

repeat once and the ends in:

G|---|
D|-9-|
A|-7-|
E|---|

Part E

with thumb 

G|-------------------|
D|-------9----7------|
A|-9---------------7-|
E|-------------------|

with thumb and index

G|-------11---9------|
D|-11----9----7----9-|
A|-9---------------7-|
E|-------------------|

Part F

with thumb and index

G|-14--16---14---18----14--16---14---18---|
D|-14----14-14-----14--14----14-14-----14-|
A|-0---------0----------0--------0--------|
E|----------------------------------------|


G|-14--16---14---18----14--16---14---18/-|
D|-------16-16-----16--14----14-14-------|
A|----------------------0--------0-------|
E|-14-------14---------------------------|


G|-14----14--18--18----16—14-14-----6--16---14-|
D|-----12----------16--------14—9/7-7----14-14-|
A|----------------------------0-----0--------0-|
E|-10--------14--------12----------------------|

and so on, until

Part G

With pick, A major in every shape of love

G|-6----9----14----18(19-16)-|
D|-7----7----14----19--------|
A|-0----0----0-----0---------|
E|---------------------------|




If you like please share, vote and comment

Matteo

************************************

| /   slide 
| h   hammer-on
| p   pull-off
| <3  heart 

            
            
Suggest correction
Creating personal tab
Creating personal tab
You can edit any tab online and save it as your Personal.

You can edit, replace or remove any tab part or add personal notes – all changes will be seen only by you.

Personal tabs can be accessed anytime from any device, even offline.
Learn more »
comments
print report bad tab
guest
You may want to rate the tab now too:
select rating
Wanna post a correction for this tab? Suggest correction