Oops, an error
Loading. Please wait.

Glittering Blackness Tab

11,368 views 3 this week
no commentswrite comment
1 2 3 4 5
x 7
add to favorites
launch autoscroll
font size
0
reset
how to read this tab
guitar tuner
Autoscroll
slow
fast
+/-
esc
set tempo
stop
Help us to improve Ultimate-Guitar.com Take our survey!
×
Author
Difficulty
novice
-------------------------------------------------------------------------------
                             SONG NAME - Band Name
-------------------------------------------------------------------------------
Tabbed by: David Lino (sponj)
Email: david.lino@gmail.com

NOTE: I didn't put the structure of the song as it's very easy to pickup.

Right speaker
                      until 0,53                          heavy distortion kicks in

e|----------------------------------||--------------------------------------------------|
B|----------------------------------||--------------------------------------------------|
G|--0---0----0---0---0---0----0---0-||-5555-555...7777...---------7/11----5-5/7--4--2---|
D|----0--------0-------0--------0---||---------------------2---5----------5------4--2--2|
A|-----------------3--------2-------||-3333-333...5555...--2---5--5/9-----3-3/5--2--0--2|
E|0--------0------------------------||---------------------0---3-----------------------0|

Variation of the first riff.

G|--0---0---0---0---0---0---0-2---
D|----0-------0-------0---------0-
A|----------------3-------2-------
E|0-------0-----------------------

2:58
e|-------------------------------------------------------------------|
B|----------------3-3-3-3-5-5-3--------------------------------------|
G|-4-4-4-4----------------------------0-0-0-0-0-0-0-0-2---4---5---7--|
D|5-5-5-5-...(0)-4-4-4-4-4-4-4-4-(0)-2-2-2-2-2-2-2-2--0..-2..-3..-5..|
A|-------------------------------------------------------------------|
E|-------------------------------------------------------------------|

Variation of the ending chords


D|2222-4444-------
A|0000-2222-5555-4
E|----------3333-2

left speaker

e|*7--------------*7-----------------*7-------------*7---------------|
B|-------------------------------------------------------------------|
G|--*7-*5----*5------*7--------*5-------*7-*5----*5----*7-------*5---|
D|--------*7------------*9-*7-----------------*7----------*9-*7----*5|
A|-------------------------------------------------------------------|
E|-------------------------------------------------------------------|
   incacurate strumming
e|7---7-7------------------------|3/5-5/7-7/9-9/3 x3 3/5-5/7-7|
B|8-8-----8...-------------------|----------------------------|
G|----------------*7-*7-*7----*7-|----------------------------|
D|-------------*9----------*9----|----------------------------|
A|-------------------------------|----------------------------|
E|-------------------------------|----------------------------|

Heavy distortion kicks in

play like guitar one but do this lick between chords

e|-----|
B|-8\3-|
G|-----|
D|-----|
A|-----|
E|-----|
                                                                                   
                                                                                  
e|---------------------------------------------------------------------|-------------------|
B|---------------------------------------------------------------------|-------------------|
G|9\-2/4-444-4h5555p4-7\-2/4-444-4h555-9\-2/4-444-7\-2/4-4444h55..5p4..|7--4--11-11-9-4-5-2|
D|---------------------------------------------------------------------|------------------x|
A|---------------------------------------------------------------------|5--2--9--9--7-2-3-0|
E|---------------------------------------------------------------------|-------------------|

G|9\-2/4-444-4h5555p4-7\-2/4-444-4h555-9\-2/4-444-7\-2/4-4444h55..5p4| 

play this but with octave power chords, like :

G|9\-2/4
D|
A|7\-0/2





Any doubts our comments e-mail me.
Enjoy
Suggest correction
comments
print report bad tab
guest
You may want to rate the tab now too:
select rating
Wanna post a correction for this tab? Suggest correction