Oops, an error
Loading. Please wait.

Look Into The Air Bass Tab

5,154 views 9 this week
no commentswrite comment
1 2 3 4 5
excellent!
x 4
add to favorites
launch autoscroll
font size
0
reset
guitar tuner
Tab Pro tools
  • play this tab
  • loop segment
  • change instrument
  • show fretboard
  • metronome
×
Best way to learn
"Look Into The Air"
Autoscroll
slow
fast
+/-
esc
set tempo
stop
Difficulty
novice
Look into the Air-Explosions

0:11
Repeat Section 4x
|------------------------8--8-8-----------------------9-----11----9--------|
|--/9-----9-9-9--6--6-6----------9--9--9-9-9--11--11----11-----11---11-----|
|--------------------------------------------------------------------------|
|-----0--------------------------------------------------------------------|

|---------------------------------------------------------------------------|
|--9--9--9-9-9---6-6\-4--4-4---------------7-7--7-7-7-----------------------|
|-----------------------------/7-7--7-7-7-------------7-7--7-7-7--4-4-4-2-2-|
|---------------------------------------------------------------------------|

Repeat 8x
|--------------------------------------------------------------------------|
|------9-----6------------------------9----6-------------------------------|
|--6-7---6-7---7------------------6-7--6-7---7-----------------------------|
|-----------------7--7-7--9--9-9---------------7--7-7--5--5-5--------------|


On Eigth time end on
|--------------------------------------------------------------------------|
|--------------------------------------------------------------------------|
|--------------------------------------------------------------------------|
|--5~----------------------------------------------------------------------|


3:58
Repeat 6x

|-------------------------------------------------------------------------|
|-------------------------------------------------------------------------|
|-----7--4-4--2-0~--------------------------------------------------------|
|---0----------------0-0--2-2-4-5~----------------------------------------|
comments
print report bad tab
I want to post or [tab]
guest
You may want to rate the tab now too:
select rating
Please do not post tabs as comments. Select "correction" instead!