Oops, an error
Loading. Please wait.

Look Into The Air Tab

14,882 views 9 this week
3 commentsread comments
1 2 3 4 5
accurate
x 7
add to favorites
launch autoscroll
font size
0
reset
how to read this tab
guitar tuner
Autoscroll
slow
fast
+/-
esc
set tempo
stop
Help us to improve Ultimate-Guitar.com Take our survey!
×
-------------------------------------------------------------------------------
                            Look into the Air- Explosions in the Sky
-------------------------------------------------------------------------------
Tabbed by: Mark Sheddan
Email: reallyboreddude@msn.com

Tuning:


Guitar 2 Intro 0:05-0:15
e--------------------------------------------------------------------------------|
B--------------------------------------------------------------------------------|
G--------------------------------------------------------------------------------|
D--------------------------------------------------------------------------------|
A---11-11-11-11----------14-14-12-14----11-11-11-11-----------14-14--------------|
E-12---12-12-12--9-9-9-9--------------12---12-12-12--9-9-9-9--------12-----------|

Guitar 1 Riff 1- 0:15-0:32 (the rythym is kinda tricky)
e--------------------------------------------------------------------------------|
B--5-5-5-5-5-------------12-12-12--12--12----12----------------5-5-5-5-5---------|
G-------------8-8-8-8-8--------------13--13-----11-11-11-11--------------8-8-8-8-|
D--------------------------------------------------------------------------------|
A--------------------------------------------------------------------------------|
E--------------------------------------------------------------------------------|

Guitar 2 Riff 1-This is played under guitar 1 for Riff 1+2. The first one begins at 17 seconds
e---------------------------------------------------------------------------------|
B--7-7-7-7-7-------------------7-7-7-7-7--rest---9-9-9--rest--7-7-7-7-7-----------|
G------------8-8-8-8-8--rest--------------------------------------------8-8-8-8-8-|
D---------------------------------------------------------------------------------|
A---------------------------------------------------------------------------------|
E---------------------------------------------------------------------------------|

Guitar 2 Intro again 0:33-0:43

Guitar 1 Riff 2- 0:43-1:00 (again Guitar 2 plays under)
e--------------------------------------------------------------------------------|
B--5-5-5-5-5----------5-5/7-7-7/9-9-9-9--rest--5-5-5-5-5-------------------------|
G-----------8-8-8-8-8-----------------------------------8-8-8-8-8----------------|
D--------------------------------------------------------------------------------|
A--------------------------------------------------------------------------------|
E--------------------------------------------------------------------------------|

Guitar 2 Intro again 1:00-1:10

Guitar 1 Riff 1 again 1:11-1:28

Guitar 2 Intro again 1:28-1:38

Guitar 1 Riff 2 again 1:39-1:56

Guitar 2 Intro again then fade out with this 1:56-2:07
e--------------------------------------------------------------------------------|
B--------------------------------------------------------------------------------|
G--------------------------------------------------------------------------------|
D--------------------------------------------------------------------------------|
A--12/11--12/11--12/11-----------------------------------------------------------|
E--------------------------------------------------------------------------------|

Bass solo

Guitar 1 Riff 3- 2:19-2:28 after Bass solo (bass is still playing)
e--------11/12----9----------11/12----9------------------------------------------|
B--------------------------------------------------------------------------------|
G--8/9-----------------8/9-------------------------------------------------------|
D--------------------------------------------------------------------------------|
A--------------------------------------------------------------------------------|
E--------------------------------------------------------------------------------|

Guitar 1 Riff 4
e--------------------------------------------------------------------------------------|
B--------------------12--12-------------------------12--12--------------------12--12---|
G---8/9--9/11--11/13---13--13---8/9--9/11--11/13--13--13-----8/9--9/11--11/13---13--13-|
D--------------------------------------------------------------------------------------|
A--------------------------------------------------------------------------------------|
E--------------------------------------------------------------------------------------|

e--------------------------------------------------------------------------------|
B--------------------------------------------------------------------------------|
G--8/9--9/6--6/4-----------------------------------------------------------------|
D--------------------------------------------------------------------------------|
A--------------------------------------------------------------------------------|
E--------------------------------------------------------------------------------|

Riff 3 again x2
Riff 4 again

then:
e--------------------------------------------------------------------------------|
B--------------------------------------------------------------------------------|
G--4/6----6/8----8/9-------------------------------------------------------------|
D--------------------------------------------------------------------------------|
A--------------------------------------------------------------------------------|
E--------------------------------------------------------------------------------|

Silence

Guitar 2 Heavily distorted 3:45-3:56
e--------------------------------------------------------------------------------|
B--------------------------------------------------------------------------------|
G--------------------------------------------------------------------------------|
D--11--------------------------11-11-11-11---11-11-11--6--6--6--6--6--6--6--6----|
A--11-let ring for 4 measures--11-11-11-11---11-11-11--7--7--7--7--7--7--7--7----|
E--9---------------------------9--9--9--9----9--9--9---5--5--5--5--5--5--5--5----|

Guitar 2- 3:57
e-----------------------------------------------------------------|
B-----------------------------------------------------------------|
G-----------------------------------------------------------------| repeat this until
D-11-11-11-11-11-11--6-6-6-6-6-6--11-11-11-11-11-11--6-6-6-6-6-6--| the end of the song
A-11-11-11-11-11-11--7-7-7-7-7-7--11-11-11-11-11-11--7-7-7-7-7-7--|
E-9--9--9--9--9--9---5-5-5-5-5-5--9--9--9--9--9--9---5-5-5-5-5-5--|

Guitar 1- 4:03 until the end of the song
e--------------------------------------------------------------------------------|
B--------------------------------------------------------------------------------|
G---------------9------------------------9---------------------------------------|
D----------9-11---------------------9-11-----------------------------------------|
A-11-11-11---------11------11-11-11---------11-----------------------------------|
E--------------------------------------------------------------------------------|

Guitar 1 end on       Guitar 2 end on
e--------             e--------|
B--------             B--------|
G--------             G--------|
D--------             D--11----|
A--11----             A--11----|
E--------             E--9-----|

===============================================================================

| /  slide up
| \  slide down
| h  hammer-on
| p  pull-off
| ~  vibrato
| +  harmonic
| x  Mute note
===============================================================================
Suggest correction
comments
print report bad tab
3 comments total.
0 reply
ICanPlayWell 91 wrote on July 4 2006, 03:04 pm

At the intro, the 11/12 aren't played together. The guitarist is using a delay pedal which makes it sound like that.

0 reply
aDogNamedPhaedo 52 wrote on August 22 2006, 04:54 pm

I've been playing it with a pedal too (I use eigth note delay, which I believe is right), but it still sounds more accurate as tabbed.

But the "tricky rhythms" in the guitar 1 riff is accounted for by the pedal. You really don't need to do any fancy rhythms with your picking.

+1 reply
pseudosoup 10 wrote on March 17 2008, 12:32 am

Alot of this seems wrong man

firstly
Guitar 2- 3:57
e-----------------------------------------------------------------|
B-----------------------------------------------------------------|
G-----------------------------------------------------------------| repeat this until
D-11-11-11-11-11-11--6-6-6-6-6-6--11-11-11-11-11-11--6-6-6-6-6-6--| the end of the song
A-11-11-11-11-11-11--7-7-7-7-7-7--11-11-11-11-11-11--7-7-7-7-7-7--|
E-9--9--9--9--9--9---5-5-5-5-5-5--9--9--9--9--9--9---5-5-5-5-5-5--|

sounds more simpler like

A-11(ring)-4- With a shitload of distortion and delay

and

Guitar 1- 4:03 until the end of the song
e--------------------------------------------------------------------------------|
B--------------------------------------------------------------------------------|
G---------------9------------------------9---------------------------------------|
D----------9-11---------------------9-11-----------------------------------------|
A-11-11-11---------11------11-11-11---------11-----------------------------------|
E--------------------------------------------------------------------------------|

is more like

Guitar 1- 4:03 until the end of the song
e--------------------------------------------------------------------------------|
B--------------------------------------------------------------------------------|
G---------------9------------------------9-9--------------------------------------|
D----------11-9---------------------11-9-----------------------------------------|
A-11-11-11---------11------11-11-11--------------------------------------------|
E--------------------------------------------------------------------------------|

guest
You may want to rate the tab now too:
select rating
Please do not post tabs as comments. Select "correction" instead!