Oops, an error
Loading. Please wait.

Magic Hours Tab

version 1
version 1

Intro

Whole song

2,266 views 12 this week
no commentswrite comment
1 2 3 4 5
accurate
x 1
add to favorites
launch autoscroll
font size
0
reset
how to read this tab
guitar tuner
Tab Pro tools
  • play this tab
  • loop segment
  • change instrument
  • show fretboard
  • metronome
Autoscroll
slow
fast
+/-
esc
set tempo
stop
Contributor
Difficulty
novice
This is a work in progress. So far I have figured out the part that starts at 3:19 and 
lasts through the song for two guitars.

/ = slide

Guitar one
E|0-0-0-0-0-----------------|
B|---------3---1-1-1-1-1----|
G|----------------------2---|
D|--------------------------|
A|-----------0------------0-|
E|----------0------------0--|

Guitar two enters after guitar one has played the above 12 times

E|----------------5-5-5-5-5-----------------5-5-5-5-5/7-7/8-8/7-|
B|-------------------------3------------------------------------|
G|2-2/4-4/5-5/9-9-----------2-2/4-4/5-5/9-9---------------------|
D|--------------------------------------------------------------|
A|--------------------------------------------------------------|
E|--------------------------------------------------------------|

7/10-10/8-8/7-7/5-8-8/7-7/10-10/8-8/7-7/5--|
-------------------------------------------|
-------------------------------------------|
-------------------------------------------|
-------------------------------------------|
-------------------------------------------|


After playing this part 4 times, guitar one disappears, and guitar two changes slightly.

Where it was            It now becomes:
E|---------------5-5-|        E|--------------5-5--|..
B|-------------------|        B|-------------------|
G|2-2/4-4/5-5/9-9----|        G|2-2/4-4/5-5/9------|
D|-------------------|        D|-------------------|
A|-------------------|        A|-------------------|
E|-------------------|        E|-------------------|
comments
We did not receive enough feedback on this tab! Please rate:
print report bad tab
1 2 3 4 5
I want to post or [tab]
guest
You may want to rate the tab now too:
select rating
Please do not post tabs as comments. Select "correction" instead!