Oops, an error
Loading. Please wait.

Memeorial tab

206 views 1 this week
no commentswrite comment
1 2 3 4 5
3 more votes to show rating
add to favorites
×
Save as Personal and add changes to this tab that will be seen only by you. Learn more ›
×
You can save this tab as Personal to edit and correct it or add notes. All changes will be seen only by you. Learn more »
launch autoscroll
font size
0
reset
how to read this tab
guitar tuner
edit
Autoscroll
slow
fast
+/-
esc
set tempo
stop
Author
Difficulty
#----------------------------------PLEASE NOTE---------------------------------#
#This file is the author's own work and represents their interpretation of the #
#song. You may only use this file for private study, scholarship, or research. #
#------------------------------------------------------------------------------##

                                    MEMORIAL
                      As recorded by Explosions In The Sky
            (From the 2003 Album THE EARTH IS NOT A COLD DEAD PLACE)

Music by Munaf Rayani, Christopher Hrasky, Michael James, Mark Smith
Arranged by Munaf Rayani, Christopher Hrasky, Michael James, Mark Smith
Transcribed by Mike C



Gtr I (E A D G B E) - 'Mark Dist.'
Gtr II (E A D G B E) - 'Munaf Dist.'
Gtr III (E A D G B E) - 'Overdub Dist.'
Gtr IV (E A D G B E) - 'Mark Clean'
Gtr V (E A D G B E) - 'Munaf Clean'

 Intro Part I
  Q=80
 12/8
  Gtr I
   <
   Q   +H      +H.          +W.
|------------------------|-----------------------|
|------------------------|-----------------------|
|-14--(14)----(14)-------|-(14)------------------|
|------------------------|-----------------------|
|------------------------|-----------------------|
|------------------------|-----------------------|
|
| Gtr II
|                                     <
|  W                H        H.       Q   +H
|------------------------|-----------------------|
|------------------------|-----------14--(14)----|
|------------------------|-----------------------|
|------------------------|-----------------------|
|------------------------|-----------------------|
|------------------------|-----------------------|
|
| Gtr III
|  W                H        W             H
|------------------------|-----------------------|
|------------------------|-----------------------|
|------------------------|-----------------------|
|------------------------|-----------------------|
|------------------------|-----------------------|
|------------------------|-----------------------|


   +W.                +W.
|------------------|-------------------------|
|------------------|-------------------------|
|-(14)-------------|-(14)--------------------|
|------------------|-------------------------|
|------------------|-------------------------|
|------------------|-------------------------|
|
|  +W.                +W.
|------------------|-------------------------|
|-(14)-------------|-(14)--------------------|
|------------------|-------------------------|
|------------------|-------------------------|
|------------------|-------------------------|
|------------------|-------------------------|
|
|                               <
|   W         H        H.       H     +Q
|------------------|-----------12----(12)----|
|------------------|-------------------------|
|------------------|-------------------------|
|------------------|-------------------------|
|------------------|-------------------------|
|------------------|-------------------------|


                      >           <
   +W.               +H      +E   Q.      +H
|-----------------|------------------------------|
|-----------------|------------------------------|
|-(14)------------|-(14)----(14)-14------(14)----|
|-----------------|------------------------------|
|-----------------|------------------------------|
|-----------------|------------------------------|
|
|                     >
|  +W.               +H.             H.
|-----------------|------------------------------|
|-(14)------------|-(14)-------------------------|
|-----------------|------------------------------|
|-----------------|------------------------------|
|-----------------|------------------------------|
|-----------------|------------------------------|
|
|                     >
|  +W.               +W.
|-(12)------------|-(12)-------------------------|
|-----------------|------------------------------|
|-----------------|------------------------------|
|-----------------|------------------------------|
|-----------------|------------------------------|
|-----------------|------------------------------|


   +W.                +W.
|------------------|--------------------------|
|------------------|--------------------------|
|-(14)-------------|-(14)---------------------|
|------------------|--------------------------|
|------------------|--------------------------|
|------------------|--------------------------|
|
|                      <
|   W         H        Q    +H      +H.
|------------------|--------------------------|
|------------------|--14---(14)----(14)-------|
|------------------|--------------------------|
|------------------|--------------------------|
|------------------|--------------------------|
|------------------|--------------------------|
|
|   W         H        W                 H
|------------------|--------------------------|
|------------------|--------------------------|
|------------------|--------------------------|
|------------------|--------------------------|
|------------------|--------------------------|
|------------------|--------------------------|


                                                                       Q=105
                                                                         >
   +W.                        +W.                     +W.               +W.
|--------------------------|-----------------------|-----------------|---------|
|--------------------------|-----------------------|-----------------|---------|
|-(14)---------------------|-(14)------------------|-(14)------------|-(14)----|
|--------------------------|-----------------------|-----------------|---------|
|--------------------------|-----------------------|-----------------|---------|
|--------------------------|-----------------------|-----------------|---------|
|
|                                                                        >
|   ~~~~
|  +Q    +H      +H.          +W.                     +W.               +W.
|--------------------------|-----------------------|-----------------|---------|
|-(14)--(14)----(14)-------|-(14)------------------|-(14)------------|-(14)----|
|--------------------------|-----------------------|-----------------|---------|
|--------------------------|-----------------------|-----------------|---------|
|--------------------------|-----------------------|-----------------|---------|
|--------------------------|-----------------------|-----------------|---------|
|
|                                       <                                >
|   W                 H        H.       Q   +H        +W.               +W.
|--------------------------|-----------12--(12)----|-(12)------------|-(12)----|
|--------------------------|-----------------------|-----------------|---------|
|--------------------------|-----------------------|-----------------|---------|
|--------------------------|-----------------------|-----------------|---------|
|--------------------------|-----------------------|-----------------|---------|
|--------------------------|-----------------------|-----------------|---------|


 Intro Part II
  A
 12/8
  Gtr I
   W.                        +W.
   |                          |
   /                          /

  Gtr IV
   Q    Q   Q   Q   Q   Q     Q    Q   Q   Q   Q   Q
|--------------------------|--------------------------|
|------15----------14------|------15----------14------|
|----------16----------14--|----------16----------14--|
|-14-----------14----------|-14-----------14----------|
|--------------------------|--------------------------|
|--------------------------|--------------------------|


  +W.                              +W.
   |                                |
   /                                /

   E    a   E  Q   Q  Q   Q   Q     Q    Q   Q  Q   Q   Q
|---------------------0----------|--0-----------0-----------|
|--------------------------------|--------------------------|
|-----------------10---------14--|----------10--------------|
|-14--(14)s12-12---------12------|------12---------12--11---|
|--------------------------------|--------------------------|
|--------------------------------|--------------------------|


   W.                        W             H
|------------------------|----------------------|
|------------------------|----------------------|
|------------------------|----------------------|
|------------------------|----------------------|
|-12---------------------|----------------------|
|------------------------|----------------------|
|
| Gtrs I, II
|  <
|  Q    +H      +H.         +W.
|------------------------|----------------------|
|-14---(14)----(14)------|-(14)-----------------|
|-14---(14)----(14)------|-(14)-----------------|
|------------------------|----------------------|
|------------------------|----------------------|
|------------------------|----------------------|
|
| Gtr III
|                            <
|  H.            H.          H.       +H.
|------------------------|--12-------(12)-------|
|------------------------|----------------------|
|------------------------|----------------------|
|------------------------|----------------------|
|------------------------|----------------------|
|------------------------|----------------------|


    W         H        W             H
|------------------|----------------------|
|------------------|----------------------|
|------------------|----------------------|
|------------------|----------------------|
|------------------|----------------------|
|------------------|----------------------|
|
|  +W.                +W.
|------------------|----------------------|
|-(14)-------------|-(14)-----------------|
|-(14)-------------|-(14)-----------------|
|------------------|----------------------|
|------------------|----------------------|
|------------------|----------------------|
|
|                                >
|  +W.                +H.       +H.
|-(12)-------------|-(12)------(12)-------|
|------------------|----------------------|
|------------------|----------------------|
|------------------|----------------------|
|------------------|----------------------|
|------------------|----------------------|


  Gtr IV
    Q    Q   Q   Q   Q   Q      Q    Q   Q   Q   Q   Q
|---------------------------|---------------------------|
|-------15------------------|-------15----------14------|
|-----------16------14------|-----------16----------14--|
|--14-----------14------14--|--14-----------14----------|
|---------------------------|---------------------------|
|---------------------------|---------------------------|
|
|  +W.                         +W.
|---------------------------|---------------------------|
|-(14)----------------------|-(14)----------------------|
|-(14)----------------------|-(14)----------------------|
|---------------------------|---------------------------|
|---------------------------|---------------------------|
|---------------------------|---------------------------|


    E    a   E  Q   Q  Q   Q   Q      Q    Q   Q  Q   Q   Q
|----------------------0----------|---0-----------0------------|
|---------------------------------|----------------------------|
|------------------10---------14--|-----------10---------------|
|--14--(14)s12-12---------12------|-------12---------12--11----|
|---------------------------------|----------------------------|
|---------------------------------|----------------------------|
|
|  +W.                               +W.
|---------------------------------|----------------------------|
|-(14)----------------------------|-(14)-----------------------|
|-(14)----------------------------|-(14)-----------------------|
|---------------------------------|----------------------------|
|---------------------------------|----------------------------|
|---------------------------------|----------------------------|


    W.                    W             H
|---------------------|----------------------|
|---------------------|----------------------|
|---------------------|----------------------|
|---------------------|----------------------|
|--12-----------------|----------------------|
|---------------------|----------------------|
|
|  +H.       +H.         +W.
|---------------------|----------------------|
|-(14)------(14)------|-(14)-----------------|
|-(14)------(14)------|-(14)-----------------|
|---------------------|----------------------|
|---------------------|----------------------|
|---------------------|----------------------|
|
| Gtr III
|                         <
|   H.        H.          H.       +H.
|---------------------|--12-------(12)-------|
|---------------------|----------------------|
|---------------------|----------------------|
|---------------------|----------------------|
|---------------------|----------------------|
|---------------------|----------------------|


    W         H        W             H
|------------------|----------------------|
|------------------|----------------------|
|------------------|----------------------|
|------------------|----------------------|
|------------------|----------------------|
|------------------|----------------------|
|
|  +W.                +W.
|------------------|----------------------|
|-(14)-------------|-(14)-----------------|
|-(14)-------------|-(14)-----------------|
|------------------|----------------------|
|------------------|----------------------|
|------------------|----------------------|
|
|                                >
|  +W.                +H.       +H.
|-(12)-------------|-(12)------(12)-------|
|------------------|----------------------|
|------------------|----------------------|
|------------------|----------------------|
|------------------|----------------------|
|------------------|----------------------|


    Q    Q   Q   Q   Q   Q      Q    Q   Q   Q   Q   E   a   E
|---------------------------|----------------------------------|
|--15-----------14----------|--15-----------14-----------------|
|-------16----------14------|-------16----------14-------------|
|-----------14----------14--|-----------14----------14-(14)s12-|
|---------------------------|----------------------------------|
|---------------------------|----------------------------------|
|
|  +W.                         +W.
|---------------------------|----------------------------------|
|-(14)----------------------|-(14)-----------------------------|
|-(14)----------------------|-(14)-----------------------------|
|---------------------------|----------------------------------|
|---------------------------|----------------------------------|
|---------------------------|----------------------------------|


    Q    Q  Q   Q   Q  Q      Q    Q  Q   Q   Q   Q
|-----------0----------0--|-----------0----------------|
|-------------------------|----------------------------|
|-------10---------14-----|-------10-------------------|
|--12----------12---------|--12----------12--11--------|
|-------------------------|----------------------12----|
|-------------------------|----------------------------|
|
|  +W.                       +W.
|-------------------------|----------------------------|
|-(14)--------------------|-(14)-----------------------|
|-(14)--------------------|-(14)-----------------------|
|-------------------------|----------------------------|
|-------------------------|----------------------------|
|-------------------------|----------------------------|


   +W.                   W         H
|--------------------|------------------|
|--------------------|------------------|
|--------------------|------------------|
|--------------------|------------------|
|-(12)---------------|------------------|
|--------------------|------------------|
|
|  +W.                  +W.
|--------------------|------------------|
|-(14)---------------|-(14)-------------|
|-(14)---------------|-(14)-------------|
|--------------------|------------------|
|--------------------|------------------|
|--------------------|------------------|
|
| Gtr III
|               <
|   H.      Q   H       +W.
|--------------12----|-(12)-------------|
|--------------------|------------------|
|--------------------|------------------|
|--------------------|------------------|
|--------------------|------------------|
|--------------------|------------------|


    W         H        W         H        W         H
|------------------|------------------|------------------|
|------------------|------------------|------------------|
|------------------|------------------|------------------|
|------------------|------------------|------------------|
|------------------|------------------|------------------|
|------------------|------------------|------------------|
|
|  +W.                +W.                +W.
|------------------|------------------|------------------|
|-(14)-------------|-(14)-------------|-(14)-------------|
|-(14)-------------|-(14)-------------|-(14)-------------|
|------------------|------------------|------------------|
|------------------|------------------|------------------|
|------------------|------------------|------------------|
|
|  +W.                +W.                +W.
|-(12)-------------|-(12)-------------|-(12)-------------|
|------------------|------------------|------------------|
|------------------|------------------|------------------|
|------------------|------------------|------------------|
|------------------|------------------|------------------|
|------------------|------------------|------------------|


    H     W            H     W            H     W            W         H
|------------------|------------------|------------------|------------------|
|------------------|------------------|------------------|------------------|
|------------------|------------------|------------------|------------------|
|------------------|------------------|------------------|------------------|
|------------------|------------------|------------------|------------------|
|------------------|------------------|------------------|------------------|
|
|  +W.                +W.                +W.                +W.
|------------------|------------------|------------------|------------------|
|-(14)-------------|-(14)-------------|-(14)-------------|-(14)-------------|
|-(14)-------------|-(14)-------------|-(14)-------------|-(14)-------------|
|------------------|------------------|------------------|------------------|
|------------------|------------------|------------------|------------------|
|------------------|------------------|------------------|------------------|
|
|  +W.                +W.                +W.                +W.
|-(12)-------------|-(12)-------------|-(12)-------------|-(12)-------------|
|------------------|------------------|------------------|------------------|
|------------------|------------------|------------------|------------------|
|------------------|------------------|------------------|------------------|
|------------------|------------------|------------------|------------------|
|------------------|------------------|------------------|------------------|


 Main Theme Intro
  Q=110
 4/4
    Q    Q   Q   Q      Q     Q   Q    Q
|-------------------|----------------------|
|-----------12--14--|-(14)-----------------|
|-------14----------|------------14--(14)--|
|-^14---------------|-------^14------------|
|-^-0---------------|-------^-0------------|
|-------------------|----------------------|
|
|   >
|  +W                  +W
|-------------------|----------------------|
|-(14)--------------|-(14)-----------------|
|-(14)--------------|-(14)-----------------|
|-------------------|----------------------|
|-------------------|----------------------|
|-------------------|----------------------|
|
|   >
|  +W                  +W
|-(12)--------------|-(12)-----------------|
|-------------------|----------------------|
|-------------------|----------------------|
|-------------------|----------------------|
|-------------------|----------------------|
|-------------------|----------------------|


    Q    Q   Q   Q      Q     Q   Q    Q
|-------------------|-----------------------|
|-----------12--14--|-(14)------------------|
|-------14----------|-------^13--14--(14)---|
|-^14---------------|-------^14-------------|
|-^-0---------------|-------^-0-------------|
|-------------------|-----------------------|
|
|  +W                  +W
|-------------------|-----------------------|
|-(14)--------------|-(14)------------------|
|-(14)--------------|-(14)------------------|
|-------------------|-----------------------|
|-------------------|-----------------------|
|-------------------|-----------------------|
|
|  +W                  +W
|-(12)--------------|-(12)------------------|
|-------------------|-----------------------|
|-------------------|-----------------------|
|-------------------|-----------------------|
|-------------------|-----------------------|
|-------------------|-----------------------|


    Q   Q   Q   Q      Q     Q   Q    Q
|------------------|----------------------|
|----------12--14--|-(14)-----------------|
|------14----------|-------^11--14--(14)--|
|-^14--------------|-------^14------------|
|-^-0--------------|-------^-0------------|
|------------------|----------------------|


    Q   Q   Q    Q      +Q     Q   Q    Q
|--------------------|------------12--(12)--|
|----------12--(12)--|-(12)-----------------|
|------14------------|----------------------|
|-^14----------------|-------^14------------|
|-^-0----------------|-------^-0------------|
|--------------------|----------------------|


    Q   Q   Q   Q      Q     Q   Q    Q
|------------------|----------------------|
|----------12--14--|-(14)-----------------|
|------14----------|-------^11--14--(14)--|
|-^14--------------|-------^14------------|
|-^-0--------------|-------^-0------------|
|------------------|----------------------|


    Q   Q   Q   Q      Q     Q   Q    Q
|------------------|----------------------|
|----------12--14--|-(14)-----------------|
|------14----------|-------^13--14--(14)--|
|-^14--------------|-------^14------------|
|-^-0--------------|-------^-0------------|
|------------------|----------------------|


    Q   Q   Q   Q      Q     Q   Q    Q
|------------------|----------------------|
|----------12--14--|-(14)-----------------|
|------14----------|-------^11--14--(14)--|
|-^14--------------|-------^14------------|
|-^-0--------------|-------^-0------------|
|------------------|----------------------|
|
| Gtr V
|   W                  W
|------------------|----------------------|
|------------------|----------------------|
|------------------|----------------------|
|------------------|----------------------|
|------------------|----------------------|
|------------------|----------------------|


    Q   Q   Q    Q      +Q      Q   Q    Q
|--------------------|-------------12--(12)--------------|
|----------12--(12)--|-(12)------------------------------|
|------14------------|-----------------------------------|
|-^14----------------|--------^14------------------------|
|-^-0----------------|--------^-0------------------------|
|--------------------|-----------------------------------|
|
|   W                    H..                T T  T   T
|--------------------|-----------------------------------|
|--------------------|-----------------------------------|
|--------------------|-------------------------------6---|
|--------------------|---------------------------7--(7)--|
|--------------------|------------------------0-(0)-(0)--|
|--------------------|-----------------------------------|


    Q    Q   Q   Q      Q      Q   Q    Q
|-------------------|----------------------------------|
|-----------12--14--|-(14)-----------------------------|
|-------14----------|--------^11--14--(14)-------------|
|-^14---------------|--------^14-----------------------|
|-^-0---------------|--------^-0-----------------------|
|-------------------|----------------------------------|
|
|  +W                  +H..                T T  T   T
|-------------------|----------------------------------|
|-------------------|----------------------------------|
|--(6)--------------|--(6)-----------------------------|
|--(7)--------------|--(7)-------------------4-(4)-(4)-|
|--(0)--------------|--(0)----------------------5--(5)-|
|-------------------|-------------------------------5--|


    Q    Q   Q   Q      Q      Q   Q    Q
|-------------------|----------------------------------|
|-----------12--14--|-(14)-----------------------------|
|-------14----------|--------^13--14--(14)-------------|
|-^14---------------|--------^14-----------------------|
|-^-0---------------|--------^-0-----------------------|
|-------------------|----------------------------------|
|
|   W                  +H..                T T  T   T
|-------------------|----------------------------------|
|-------------------|----------------------------------|
|-------------------|----------------------------------|
|--(4)--------------|--(4)-------------------3-(3)-(3)-|
|--(5)--------------|--(5)----------------------5--(5)-|
|---5---------------|--(5)--------------------------5--|


    Q    Q   Q    Q      +Q     Q    Q    Q
|---------------------|-----------------------|
|-----------12--(12)--|-(12)------------------|
|-------14------------|-------------10--(10)--|
|-^14-----------------|-------^14-------------|
|-^-0-----------------|-------^-0-------------|
|---------------------|-----------------------|
|
|  +W                     Q     Q    Q    Q
|---------------------|-----------------------|
|---------------------|-----------------------|
|---------------------|---9----(9)---7---(7)--|
|--(3)----------------|-----------------------|
|--(5)----------------|-----------------------|
|--(5)----------------|-----------------------|


    Q   Q   Q    Q      +Q      Q   Q    Q
|--------------------|-------------12--(12)--------------|
|----------12--(12)--|-(12)------------------------------|
|------14------------|-----------------------------------|
|-^14----------------|--------^14------------------------|
|-^-0----------------|--------^-0------------------------|
|--------------------|-----------------------------------|
|
|   W                   +H..                T T  T   T
|--------------------|-----------------------------------|
|--------------------|-----------------------------------|
|--------------------|-------------------------------6---|
|-!-2----------------|--(2)----------------------7--(7)--|
|-!-4----------------|--(4)-------------------0-(0)-(0)--|
|-!-5----------------|--(5)------------------------------|


  Q=115
    Q    Q   Q   Q      Q     Q    Q    Q
|-------------------|-----------------------||
|-----------12--14--|-(14)------------------||
|-------14----------|-------^11---14--(14)--||
|-^14---------------|-------^14-------------||
|-^-0---------------|-------^-0-------------||
|-------------------|-----------------------||
|
|  +W                   Q     Q    Q    Q
|-------------------|-----------------------||
|-------------------|-----------------------||
|--(6)--------------|--------------9---(9)--||
|--(7)--------------|--11---(11)------------||
|--(0)--------------|-----------------------||
|-------------------|-----------------------||


 Main Theme
    Q   Q   Q   Q      Q     Q   Q    Q
|------------------|----------------------|
|----------12--14--|-(14)-----------------|
|------14----------|-------^13--14--(14)--|
|-^14--------------|-------^14------------|
|-^-0--------------|-------^-0------------|
|------------------|----------------------|
|
|   W                 +W
|------------------|----------------------|
|------------------|----------------------|
|------------------|----------------------|
|-^-4--------------|--(4)-----------------|
|-^-5--------------|--(5)-----------------|
|-^-5--------------|--(5)-----------------|


    Q   Q   Q    Q      +Q     Q    Q    Q
|--------------------|-----------------------|
|----------12--(12)--|-(12)------------------|
|------14------------|-------------10--(10)--|
|-^14----------------|-------^14-------------|
|-^-0----------------|-------^-0-------------|
|--------------------|-----------------------|
|
|   W                    Q     Q    Q    Q
|--------------------|-----------------------|
|--------------------|-----------------------|
|--------------------|---9----(9)---7---(7)--|
|-^-3----------------|-----------------------|
|-^-5----------------|-----------------------|
|-^-5----------------|-----------------------|


    Q   Q   Q    Q      +Q     Q   Q    Q
|--------------------|------------12--(12)--|
|----------12--(12)--|-(12)-----------------|
|------14------------|----------------------|
|-^14----------------|-------^14------------|
|-^-0----------------|-------^-0------------|
|--------------------|----------------------|
|
|   W                   +W
|--------------------|----------------------|
|--------------------|----------------------|
|--------------------|----------------------|
|-^-2----------------|--(2)-----------------|
|-^-4----------------|--(4)-----------------|
|-^-5----------------|--(5)-----------------|


      Q   Q   Q   Q      Q     Q    Q     Q
||-------------------|------------------------|
||o----------12--14--|-(14)-------------------|
||-------14----------|-------^11---14---(14)--|
||--^14--------------|-------^14--------------|
||o-^-0--------------|-------^-0--------------|
||-------------------|------------------------|
|
|     W                  Q     Q    Q    +Q
||-------------------|------------------------|
||o------------------|------------------------|
||--^-6--------------|--------11--(11)--(11)--|
||--^-7--------------|-^11--------------------|
||o-^-0--------------|-^-0--------------------|
||-------------------|------------------------|


    Q   Q   Q   Q      Q     Q    Q    Q
|------------------|------------------------|
|----------12--14--|-(14)-------------------|
|------14----------|-------^13---14--(14)---|
|-^14--------------|-------^14--------------|
|-^-0--------------|-------^-0--------------|
|------------------|------------------------|
|
|   W                  Q    +H.
|------------------|------------------------|
|------------------|------------------------|
|------------------|------------------------|
|-^-4--------------|--(4)---(4)-------------|
|-^-5--------------|--(5)---(5)-------------|
|-^-5--------------|--(5)---(5)-------------|


    Q   Q   Q    Q      +Q     Q    Q    Q
|--------------------|-----------------------|
|----------12--(12)--|-(12)------------------|
|------14------------|-------------10--(10)--|
|-^14----------------|-------^14-------------|
|-^-0----------------|-------^-0-------------|
|--------------------|-----------------------|
|
|   W                    Q     Q    Q    Q
|--------------------|-----------------------|
|--------------------|-----------------------|
|--------------------|---9----(9)---7---(7)--|
|-^-3----------------|-----------------------|
|-^-5----------------|-----------------------|
|-^-5----------------|-----------------------|


    Q   Q   Q    Q      +Q     Q   Q    Q
|--------------------|------------12--(12)---||
|----------12--(12)--|-(12)-----------------o||
|------14------------|-----------------------||
|-^14----------------|-------^14-------------||
|-^-0----------------|-------^-0------------o||
|--------------------|-----------------------||
|
|   W                   +W
|--------------------|-----------------------||
|--------------------|----------------------o||
|--------------------|-----------------------||
|-^-2----------------|--(2)------------------||
|-^-4----------------|--(4)-----------------o||
|-^-5----------------|--(5)------------------||


  Q=125
   E  E  E  E  E  E  E  E    E  E  E  E  E  E  E  E
|-------------------------|-------------------------|
|-------------------------|-------------------------|
|-14-14-14-14-14-14-14-14-|-14-14-14-14-14-14-14-14-|
|-11-11-11-11-11-11-11-11-|-11-11-11-11-11-11-11-11-|
|--0--0--0--0--0--0--0--0-|--0--0--0--0--0--0--0--0-|
|-------------------------|-------------------------|
|
|  E  E  E  E  E  E  E  E    E  E  E  E  E  E  E  E
|-------------------------|-------------------------|
|-------------------------|-------------------------|
|-16-16-16-16-16-16-16-16-|-16-16-16-16-16-16-16-16-|
|-14-14-14-14-14-14-14-14-|-14-14-14-14-14-14-14-14-|
|-------------------------|-------------------------|
|-------------------------|-------------------------|


   E  E  E  E  E  E  E  E    E  E  E  E  E  E  E  E
|-------------------------|-------------------------|
|-------------------------|-------------------------|
|-14-14-14-14-14-14-14-14-|-14-14-14-14-14-14-14-14-|
|-14-14-14-14-14-14-14-14-|-14-14-14-14-14-14-14-14-|
|--0--0--0--0--0--0--0--0-|--0--0--0--0--0--0--0--0-|
|-------------------------|-------------------------|
|
|  E  E  E  E  E  E  E  E    E  E  E  E  E  E  E  E
|-------------------------|-------------------------|
|-------------------------|-------------------------|
|-14-14-14-14-14-14-14-14-|-14-14-14-14-14-14-14-14-|
|-14-14-14-14-14-14-14-14-|-14-14-14-14-14-14-14-14-|
|-------------------------|-------------------------|
|-------------------------|-------------------------|


   E  E  E  E  E  E  E  E    E  E  E  E  E  E  E  E
|-------------------------|-------------------------|
|-------------------------|-------------------------|
|-14-14-14-14-14-14-14-14-|-14-14-14-14-14-14-14-14-|
|-11-11-11-11-11-11-11-11-|-11-11-11-11-11-11-11-11-|
|--0--0--0--0--0--0--0--0-|--0--0--0--0--0--0--0--0-|
|-------------------------|-------------------------|
|
|  E  E  E  E  E  E  E  E    E  E  E  E  E  E  E  E
|-------------------------|-------------------------|
|-------------------------|-------------------------|
|-14-14-14-14-14-14-14-14-|-16-16-16-16-16-16-16-16-|
|-14-14-14-14-14-14-14-14-|-14-14-14-14-14-14-14-14-|
|-------------------------|-------------------------|
|-------------------------|-------------------------|


   E  E  E  E  E  E  E  E    E  E  E  E  E  E  E  E
|-------------------------|-------------------------|
|-------------------------|-------------------------|
|-14-14-14-14-14-14-14-14-|-14-14-14-14-14-14-14-14-|
|-14-14-14-14-14-14-14-14-|-14-14-14-14-14-14-14-14-|
|--0--0--0--0--0--0--0--0-|--0--0--0--0--0--0--0--0-|
|-------------------------|-------------------------|
|
|  E  E  E  E  E  E  E  E    E  E  E  E  E  E  E  E
|-------------------------|-------------------------|
|-------------------------|-------------------------|
|-18-18-18-18-18-18-18-18-|-19-19-19-19-19-19-19-19-|
|-14-14-14-14-14-14-14-14-|-14-14-14-14-14-14-14-14-|
|-------------------------|-------------------------|
|-------------------------|-------------------------|


 Theme II
  Q=130
 12/8
   E   +E   E  E  E  E  E  +E   E  +E   E  +E
|----------------------------------------------|
|----------------------------------------------|
|-13--(13)-13-13-13-13-13-(13)-----------------|
|------------------------------16-(16)-16-(16)-|
|----------------------------------------------|
|----------------------------------------------|
|
|  W.
|----------------------------------------------|
|-17-------------------------------------------|
|----------------------------------------------|
|----------------------------------------------|
|----------------------------------------------|
|----------------------------------------------|


   E  +E   E  E  E  E  E  +E   E  +E   E  +E     E  +E   E  E  E  E  E  +E   E  +E   E  +E
|---------------------------------------------|---------------------------------------------|
|---------------------------------------------|---------------------------------------------|
|-13-(13)-13-13-13-13-13-(13)-----------------|---------------------------------------------|
|-----------------------------16-(16)-16-(16)S|=17-(17)-17-17-17-17-17-(17)-16-(16)-16-(16)-|
|---------------------------------------------|---------------------------------------------|
|---------------------------------------------|---------------------------------------------|
|
|  W                           H                 W                           H
|---------------------------------------------|---------------------------------------------|
|---------------------------------------------|---------------------------------------------|
|---------------------------------------------|---------------------------------------------|
|---------------------------------------------|---------------------------------------------|
|---------------------------------------------|---------------------------------------------|
|---------------------------------------------|---------------------------------------------|


   E  +E   E  E  E  E  E  +E   E  +E   E  +E     E  +E   E  E  E  E  E  +E   E  +E   E  +E
|---------------------------------------------|---------------------------------------------|
|---------------------------------------------|---------------------------------------------|
|-13-(13)-13-13-13-13-13-(13)-----------------|-13-(13)-13-13-13-13-13-(13)-----------------|
|-----------------------------16-(16)-16-(16)-|-----------------------------16-(16)-16-(16)S|
|---------------------------------------------|---------------------------------------------|
|---------------------------------------------|---------------------------------------------|
|
|  W                           H                 W                           H
|---------------------------------------------|---------------------------------------------|
|---------------------------------------------|---------------------------------------------|
|---------------------------------------------|---------------------------------------------|
|---------------------------------------------|---------------------------------------------|
|---------------------------------------------|---------------------------------------------|
|---------------------------------------------|---------------------------------------------|


   E  +E   E  E  E  E  E  +E   E  +E   E  +E
|----------------------------------------------|
|----------------------------------------------|
|----------------------------------------------|
|-17-(17)-17-17-17-17-17-(17)-16-(16)-16-(16)--|
|----------------------------------------------|
|----------------------------------------------|
|
|  W                           H
|----------------------------------------------|
|----------------------------------------------|
|----------------------------------------------|
|----------------------------------------------|
|----------------------------------------------|
|----------------------------------------------|


  $
    E   +E   E  E  E  E  E  +E   E  +E   E  +E
|-----------------------------------------------|
|-----------------------------------------------|
|--16--(16)-16-16-16-16-16-(16)-----------------|
|-------------------------------14-(14)-14-(14)-|
|-----------------------------------------------|
|-----------------------------------------------|
|
|   W.
|-----------------------------------------------|
|-----------------------------------------------|
|-^11-------------------------------------------|
|-^14-------------------------------------------|
|-----------------------------------------------|
|-----------------------------------------------|


    E   +E   E  E  E  E  E  +E   E  +E   E  +E     E  +E   E  E  E  E  E  +E   E  +E   E 
 +E
|-----------------------------------------------|----------------------------------------------|
|-----------------------------------------------|----------------------------------------------|
|--16--(16)-16-16-16-16-16-(16)-----------------|-14-(14)-14-14-14-14-14-(14)------------------|
|-------------------------------14-(14)-14-(14)-|-----------------------------14-(14)-14-(14)--|
|-----------------------------------------------|----------------------------------------------|
|-----------------------------------------------|----------------------------------------------|
|
|   W.                                             E  +E   E  E  E  E  E  +E   E  +E   E 
 +E
|-----------------------------------------------|----------------------------------------------|
|-----------------------------------------------|-15-(15)-15-15-15-15-15-(15)------------------|
|-^11-------------------------------------------|-----------------------------17-(17)-17-(17)--|
|-^14-------------------------------------------|----------------------------------------------|
|-----------------------------------------------|----------------------------------------------|
|-----------------------------------------------|----------------------------------------------|


    E   +E   E  E  E  E  E  +E   E  +E   E  +E
|-----------------------------------------------|
|-----------------------------------------------|
|--16--(16)-16-16-16-16-16-(16)-----------------|
|-------------------------------14-(14)-14-(14)-|
|-----------------------------------------------|
|-----------------------------------------------|
|
|   W.
|-----------------------------------------------|
|-----------------------------------------------|
|-^11-------------------------------------------|
|-^14-------------------------------------------|
|-----------------------------------------------|
|-----------------------------------------------|


    E   +E   E  E  E  E  E  +E   E  +E   E  +E     E  +E   E  E  E  E  E  +E   E  +E   E 
 +E
|-----------------------------------------------|----------------------------------------------|
|-----------------------------------------------|----------------------------------------------|
|--16--(16)-16-16-16-16-16-(16)-----------------|-14-(14)-14-14-14-14-14-(14)------------------|
|-------------------------------14-(14)-14-(14)-|-----------------------------14-(14)-14-(14)--|
|-----------------------------------------------|----------------------------------------------|
|-----------------------------------------------|----------------------------------------------|
|
|   W.                                             E  +E   E  E  E  E  E  +E   E  +E   E 
 +E
|-----------------------------------------------|----------------------------------------------|
|-----------------------------------------------|-----------------------------17-(17)-17-(17)--|
|-^11-------------------------------------------|-17-(17)-17-17-17-17-17-(17)------------------|
|-^14-------------------------------------------|----------------------------------------------|
|-----------------------------------------------|----------------------------------------------|
|-----------------------------------------------|----------------------------------------------|


     E  +E   E  E  E  E  E  +E    E  +E    E  +E     E  +E   E  E  E  E  E  +E    E  +E  
  E  +E
||------------------------------------------------|-----------------------------------------------|
||o-----------------------------------------------|-----------------------------------------------|
||--13-(13)-13-13-13-13-13-(13)-------------------|-13-(13)-13-13-13-13-13-(13)-------------------|
||-------------------------------16-(16)--14-(14)-|------------------------------16-(16)--14-(14)-|
||o-----------------------------------------------|-----------------------------------------------|
||------------------------------------------------|-----------------------------------------------|
|
|    E  +E   E  E  E  E  E  +E    E  +E    E  +E     E  +E   E  E  E  E  E  +E    E  +E  
  E  +E
||------------------------------------------------|-----------------------------------------------|
||o-----------------------------^12-(12)-^12-(12)-|-----------------------------^12-(12)-^12-(12)-|
||--13-(13)-13-13-13-13-13-(13)-^13-(13)-^13-(13)-|-13-(13)-13-13-13-13-13-(13)-^13-(13)-^13-(13)-|
||------------------------------------------------|-----------------------------------------------|
||o-----------------------------------------------|-----------------------------------------------|
||------------------------------------------------|-----------------------------------------------|


                                        D.S.
   E  +E   E  E  E  E  E  +E    E  +E    E   +E
|-------------------------------------------------||
|------------------------------------------------o||
|-------------------------------------------------||
|-17-(17)-17-17-17-17-17-(17)--16-(16)--14--(14)--||
|------------------------------------------------o||
|-------------------------------------------------||
|
|  E  +E   E  E  E  E  E  +E    E  +E    E   +E
|-------------------------------------------------||
|-----------------------------^13-(13)-(13)-(13)-o||
|-12-(12)-12-12-12-12-12-(12)-^12-(12)-(12)-(12)--||
|-------------------------------------------------||
|------------------------------------------------o||
|-------------------------------------------------||


    E   +E   E  E  E  E  E  +E   E  +E   E  +E
|-----------------------------------------------|
|-----------------------------------------------|
|--16--(16)-16-16-16-16-16-(16)-----------------|
|-------------------------------14-(14)-14-(14)-|
|-----------------------------------------------|
|-----------------------------------------------|
|
|   W.
|-----------------------------------------------|
|-----------------------------------------------|
|-^11-------------------------------------------|
|-^14-------------------------------------------|
|-----------------------------------------------|
|-----------------------------------------------|


    E   +E   E  E  E  E  E  +E   E  +E   E  +E     E  +E   E  E  E  E  E  +E   E  +E   E 
 +E
|-----------------------------------------------|----------------------------------------------|
|-----------------------------------------------|----------------------------------------------|
|--16--(16)-16-16-16-16-16-(16)-----------------|-14-(14)-14-14-14-14-14-(14)------------------|
|-------------------------------14-(14)-14-(14)-|-----------------------------14-(14)-14-(14)--|
|-----------------------------------------------|----------------------------------------------|
|-----------------------------------------------|----------------------------------------------|
|
|   W.                                             E  +E   E  E  E  E  E  +E   E  +E   E 
  E
|-----------------------------------------------|----------------------------------------------|
|-----------------------------------------------|-15-(15)-15-15-15-15-15-(15)------------------|
|-^11-------------------------------------------|-----------------------------17-(17)-17p=16---|
|-^14-------------------------------------------|----------------------------------------------|
|-----------------------------------------------|----------------------------------------------|
|-----------------------------------------------|----------------------------------------------|


    E   +E   E  E  E  E  E  +E   E  +E   E  +E
|-----------------------------------------------|
|-----------------------------------------------|
|--16--(16)-16-16-16-16-16-(16)-14-(14)---------|
|---------------------------------------14-(14)-|
|-----------------------------------------------|
|-----------------------------------------------|
|
|   W.
|-----------------------------------------------|
|-----------------------------------------------|
|-^11-------------------------------------------|
|-^14-------------------------------------------|
|-----------------------------------------------|
|-----------------------------------------------|


    E   +E   E  E  E  E  E  +E   E  +E   E  +E     E  +E   E  E  E  E  E  +E   E  +E   E 
 +E
|-----------------------------------------------|----------------------------------------------|
|-----------------------------------------------|----------------------------------------------|
|--16--(16)-16-16-16-16-16-(16)-14-(14)---------|-14-(14)-14-14-14-14-14-(14)------------------|
|---------------------------------------14-(14)-|-----------------------------14-(14)-14-(14)--|
|-----------------------------------------------|----------------------------------------------|
|-----------------------------------------------|----------------------------------------------|
|
|   W.                                             E  +E   E  E  E  E  E  +E   E  +E   E 
 +E
|-----------------------------------------------|----------------------------------------------|
|-----------------------------------------------|-----------------------------17-(17)-17-(17)--|
|-^11-------------------------------------------|-17-(17)-17-17-17-17-17-(17)------------------|
|-^14-------------------------------------------|----------------------------------------------|
|-----------------------------------------------|----------------------------------------------|
|-----------------------------------------------|----------------------------------------------|


    E  +E    E    E    E    E    E   +E    E   +E    E   +E
|------------------------------------------------------------|
|------------------------------------------------------------|
|--13-(13)--13---13---13---13---13--(13)---------------------|
|-----------------------------------------16--(16)--16--(16)-|
|------------------------------------------------------------|
|------------------------------------------------------------|
|
|   Q        E    E    E    E    E   +E    Q        +Q
|----------(12)-(12)-(12)-(12)-(12)-(12)-(12)------(12)------|
|-^12------(12)-(12)-(12)-(12)-(12)-(12)-(12)------(12)------|
|-^13------(13)-(13)-(13)-(13)-(13)-(13)-(13)------(13)------|
|------------------------------------------------------------|
|------------------------------------------------------------|
|------------------------------------------------------------|


    E  +E    E    E    E    E    E   +E    E   +E    E   +E  |
|------------------------------------------------------------|
|------------------------------------------------------------|
|--13-(13)--13---13---13---13---13--(13)---------------------|
|-----------------------------------------16--(16)--16--(16)S|
|------------------------------------------------------------|
|------------------------------------------------------------|

    E  +E    E    E    E    E    E   +E    E   +E    E   +E
|-------------------------------------------------------------|
|-------------------------------------------------------------|
|-------------------------------------------------------------|
|==17-(17)--17---17---17---17---17--(17)--16--(16)--16--(16)--|
|-------------------------------------------------------------|
|-------------------------------------------------------------|
|
|   Q        E    E    E    E    E   +E    Q        +Q       |
|----------(12)-(12)-(12)-(12)-(12)-(12)-(12)------(12)------|
|-^12------(12)-(12)-(12)-(12)-(12)-(12)-(12)------(12)------|
|-^13------(13)-(13)-(13)-(13)-(13)-(13)-(13)------(13)------|
|------------------------------------------------------------|
|------------------------------------------------------------|
|------------------------------------------------------------|

    Q        E    E    E    E    E   +E    Q        +Q
|----------(12)-(12)-(12)-(12)-(12)-(12)-(12)------(12)-------|
|-^12------(12)-(12)-(12)-(12)-(12)-(12)-(12)------(12)-------|
|-^12------(12)-(12)-(12)-(12)-(12)-(12)-(12)------(12)-------|
|-------------------------------------------------------------|
|-------------------------------------------------------------|
|-------------------------------------------------------------|


    E  +E    E    E    E    E    E   +E    E   +E    E   +E
|------------------------------------------------------------|
|------------------------------------------------------------|
|--13-(13)--13---13---13---13---13--(13)---------------------|
|-----------------------------------------16--(16)--16--(16)-|
|------------------------------------------------------------|
|------------------------------------------------------------|
|
|   Q        E    E    E    E    E   +E    Q        +Q
|----------(12)-(12)-(12)-(12)-(12)-(12)-(12)------(12)------|
|-^12------(12)-(12)-(12)-(12)-(12)-(12)-(12)------(12)------|
|-^13------(13)-(13)-(13)-(13)-(13)-(13)-(13)------(13)------|
|------------------------------------------------------------|
|------------------------------------------------------------|
|------------------------------------------------------------|


    E  +E    E    E    E    E    E   +E    E   +E    E   +E  |
|------------------------------------------------------------|
|------------------------------------------------------------|
|--13-(13)--13---13---13---13---13--(13)---------------------|
|-----------------------------------------16--(16)--16--(16)S|
|------------------------------------------------------------|
|------------------------------------------------------------|

   E  +E   E  E  E  E  E  +E   E  +E    E   +E
|------------------------------------------------|
|------------------------------------------------|
|------------------------------------------------|
|=17-(17)-17-17-17-17-17-(17)-16-(16)--16--(16)--|
|------------------------------------------------|
|------------------------------------------------|
|
|   Q        E    E    E    E    E   +E    Q        +Q       |
|----------(12)-(12)-(12)-(12)-(12)-(12)-(12)------(12)------|
|-^12------(12)-(12)-(12)-(12)-(12)-(12)-(12)------(12)------|
|-^13------(13)-(13)-(13)-(13)-(13)-(13)-(13)------(13)------|
|------------------------------------------------------------|
|------------------------------------------------------------|
|------------------------------------------------------------|

   E  +E   E  E  E  E  E  +E   Q       +Q
|-14-(14)-14-14-14-14-14-(14)-12------(12)-------|
|------------------------------------------------|
|------------------------------------------------|
|------------------------------------------------|
|------------------------------------------------|
|------------------------------------------------|


  H.=H
    E   +E   E  E  E  E  E  +E   E  +E   E  +E
|-----------------------------------------------|
|-----------------------------------------------|
|--13--(13)-13-13-13-13-13-(13)-----------------|
|-------------------------------16-(16)-16-(16)-|
|-----------------------------------------------|
|-----------------------------------------------|
|
|   W.
|-----------------------------------------------|
|-^12-------------------------------------------|
|-^13-------------------------------------------|
|-----------------------------------------------|
|-----------------------------------------------|
|-----------------------------------------------|


                                                Q=123
   E  +E   E  E  E  E  E  +E   E  +E   E  +E     E  +E   E  E  E  E  E  +E   E  +E   E  +E
|---------------------------------------------|----------------------------------------------|
|---------------------------------------------|----------------------------------------------|
|-13-(13)-13-13-13-13-13-(13)-----------------|----------------------------------------------|
|-----------------------------16-(16)-16-(16)S|=17-(17)-17-17-17-17-17-(17)-16-(16)-16-(16)--|
|---------------------------------------------|----------------------------------------------|
|---------------------------------------------|----------------------------------------------|
|
|  W                           H                 W                           H
|---------------------------------------------|----------------------------------------------|
|---------------------------------------------|----------------------------------------------|
|---------------------------------------------|----------------------------------------------|
|---------------------------------------------|----------------------------------------------|
|---------------------------------------------|----------------------------------------------|
|---------------------------------------------|----------------------------------------------|


     E  +E   E  E  E  E  E  +E   E  +E   E  +E
||----------------------------------------------|
||o---------------------------------------------|
||--13-(13)-13-13-13-13-13-(13)-----------------|
||------------------------------16-(16)-16-(16)-|
||o---------------------------------------------|
||----------------------------------------------|


   E  +E   E  E  E  E  E  +E   E  +E   E  +E     E  +E   E  E  E  E  E  +E   E  +E   E  
+E   3x
|---------------------------------------------|----------------------------------------------||
|---------------------------------------------|---------------------------------------------o||
|-13-(13)-13-13-13-13-13-(13)-----------------|----------------------------------------------||
|-----------------------------16-(16)-16-(16)S|=17-(17)-17-17-17-17-17-(17)-16-(16)-16-(16)--||
|---------------------------------------------|---------------------------------------------o||
|---------------------------------------------|----------------------------------------------||


   E  +E   E  E  E  E  E  +E   E  +E   E  +E
|---------------------------------------------|
|---------------------------------------------|
|-13-(13)-13-13-13-13-13-(13)-----------------|
|-----------------------------16-(16)-16-(16)-|
|---------------------------------------------|
|---------------------------------------------|


                                                H=H
                                                                                    Gtr I
   E  +E   E  E  E  E  E  +E   E  +E   E  +E     E  +E   E  E  E  E  E  +E   E  +E  E +E
|---------------------------------------------|--------------------------------------------|
|---------------------------------------------|--------------------------------------------|
|-13-(13)-13-13-13-13-13-(13)-----------------|--------------------------------------------|
|-----------------------------16-(16)-16-(16)S|=17-(17)-17-17-17-17-17-(17)-16-(16)--------|
|---------------------------------------------|-------------------------------------0-(0)--|
|---------------------------------------------|-------------------------------------0-(0)--|


    Q=135
    Gtr I
     E  +E   E  E  E  E  E  +E   E  +E   E  +E
||----------------------------------------------|
||o---------------------------------------------|
||----------------------------------------------|
||--18-(18)-18-18-18-18-18-(18)-16-(16)-14-(14)-|
||o-14-(14)-14-14-14-14-14-(14)-14-(14)-14-(14)-|
||---0--(0)--0--0--0--0--0--(0)--0--(0)--0--(0)-|
|
|   Gtr II
|    E  +E   E  E  E  E  E  +E   E   E   E   E
||----------------------------------------------|
||o-12-(12)-------------12-(12)-----------------|
||--13-(13)-------------13-(13)-----------------|
||--14-(14)-14-14-14-14-14-(14)-14--14--14--14--|
||o-14-(14)-14-14-14-14-14-(14)-14--14--14--14--|
||---0--(0)--0--0--0--0--0--(0)--0---0---0---0--|


   E  +E   E  E  E  E  E  +E   E  +E   E  +E     E  +E   E  E  E  E  E  +E   E  +E   E  +E
|---------------------------------------------|---------------------------------------------|
|---------------------------------------------|---------------------------------------------|
|---------------------------------------------|---------------------------------------------|
|-18-(18)-18-18-18-18-18-(18)-16-(16)-14-(14)-|-17-(17)-17-17-17-17-17-(17)-16-(16)--0--(0)-|
|-14-(14)-14-14-14-14-14-(14)-14-(14)-14-(14)-|-15-(15)-15-15-15-15-15-(15)-15-(15)--0--(0)-|
|--0--(0)--0--0--0--0--0--(0)--0--(0)--0--(0)-|--0--(0)--0--0--0--0--0--(0)--0--(0)--0--(0)-|
|
|  E  +E   E  E  E  E  E  +E   E   E   E   E     E  +E   E  E  E  E  E  +E   E   E   E  +E
|---------------------------------------------|---------------------------------------------|
|-12-(12)-------------12-(12)-----------------|-----------------------------15--15--15-(15)-|
|-13-(13)-------------13-(13)-----------------|-14-(14)-14-14-14-14-14-(14)-----------------|
|-14-(14)-14-14-14-14-14-(14)-14--14--14--14--|-14-(14)-14-14-14-14-14-(14)-----------------|
|-14-(14)-14-14-14-14-14-(14)-14--14--14--14--|---------------------------------------------|
|--0--(0)--0--0--0--0--0--(0)--0---0---0---0--|---------------------------------------------|


   E  +E   E  E  E  E  E  +E   E  +E   E  +E     E  +E   E  E  E  E  E  +E   E  +E   E  +E
|---------------------------------------------|---------------------------------------------|
|---------------------------------------------|---------------------------------------------|
|---------------------------------------------|---------------------------------------------|
|-18-(18)-18-18-18-18-18-(18)-16-(16)-14-(14)-|-18-(18)-18-18-18-18-18-(18)-16-(16)-14-(14)-|
|-14-(14)-14-14-14-14-14-(14)-14-(14)-14-(14)-|-14-(14)-14-14-14-14-14-(14)-14-(14)-14-(14)-|
|--0--(0)--0--0--0--0--0--(0)--0--(0)--0--(0)-|--0--(0)--0--0--0--0--0--(0)--0--(0)--0--(0)-|
|
|  E  +E   E  E  E  E  E  +E   E   E   E   E     E  +E   E  E  E  E  E  +E   E   E   E   E
|---------------------------------------------|---------------------------------------------|
|-12-(12)-------------12-(12)-----------------|-12-(12)-------------12-(12)-----------------|
|-13-(13)-------------13-(13)-----------------|-13-(13)-------------13-(13)-----------------|
|-14-(14)-14-14-14-14-14-(14)-14--14--14--14--|-14-(14)-14-14-14-14-14-(14)-14--14--14--14--|
|-14-(14)-14-14-14-14-14-(14)-14--14--14--14--|-14-(14)-14-14-14-14-14-(14)-14--14--14--14--|
|--0--(0)--0--0--0--0--0--(0)--0---0---0---0--|--0--(0)--0--0--0--0--0--(0)--0---0---0---0--|


   E  +E   E  E  E  E  E  +E   E  +E   E  +E
|-----------------------------------------------||
|----------------------------------------------o||
|-----------------------------------------------||
|-17-(17)-17-17-17-17-17-(17)-16-(16)--0--(0)---||
|--0--(0)--0--0--0--0--0--(0)--0--(0)--0--(0)--o||
|-----------------------------------------------||
|
|  E  +E   E  E  E  E  E  +E   E   E   E  +E
|-----------------------------------------------||
|-----------------------------15--15--15-(15)--o||
|-14-(14)-14-14-14-14-14-(14)-------------------||
|-14-(14)-14-14-14-14-14-(14)-------------------||
|----------------------------------------------o||
|-----------------------------------------------||


  Q=130
   E  +E   E  E  E  E  E  +E    E    E   E  E
|---------------------------------------------|
|---------------------------------------------|
|---------------------------------------------|
|-18-(18)-18-18-18-18-18-(18)--18---18--18-18-|
|-14-(14)-14-14-14-14-14-(14)--14---14--14-14-|
|--0--(0)--0--0--0--0--0--(0)---0----0---0--0-|
|
|  E   E   E  E  E  E  E   E    E    E   E  E
|-14--14--14-14-14-14-14--14--(14)-(14)-------|
|------------------------------17---17--17-17-|
|---------------------------------------------|
|---------------------------------------------|
|---------------------------------------------|
|---------------------------------------------|


   E  +E   E  E  E  E  E  +E    E    E   E  E    E  +E   E  E  E  E  E  +E   E  E  E   E
|---------------------------------------------|--------------------------------------------|
|---------------------------------------------|--------------------------------------------|
|---------------------------------------------|--------------------------------------------|
|-18-(18)-18-18-18-18-18-(18)--18---18--18--0-|-10-(10)-10-10-10-10-10-(10)-10-10-10---0---|
|-14-(14)-14-14-14-14-14-(14)--14---14--14--0-|--0--(0)--0--0--0--0--0--(0)--0--0--0---0---|
|--0--(0)--0--0--0--0--0--(0)---0----0---0--0-|----------------------------------------0---|
|
|  E   E   E  E  E  E  E   E    E    E   E  E    E   E   E  E  E  E  E   E   E  E  E  +E
|-14--14--14-14-14-14-14--14--(14)-(14)-------|--------------------------------------------|
|------------------------------17---17--17-17-|-15--15--15-15-15-15-15--15--13-13-13-(13)--|
|---------------------------------------------|--------------------------------------------|
|---------------------------------------------|--------------------------------------------|
|---------------------------------------------|--------------------------------------------|
|---------------------------------------------|--------------------------------------------|


   E  +E   E  E  E  E  E  +E    E   E  E  E
|-------------------------------------------|
|-------------------------------------------|
|-------------------------------------------|
|-18-(18)-18-18-18-18-18-(18)--18--18-18-18-|
|-14-(14)-14-14-14-14-14-(14)--14--14-14-14-|
|--0--(0)--0--0--0--0--0--(0)---0---0--0--0-|
|
|  W                           +Q      Q
|-------------------------------------------|
|-12--------------------------(12)----------|
|-------------------------------------------|
|-------------------------------------------|
|-------------------------------------------|
|-------------------------------------------|


   E  +E   E  E  E  E  E  +E    E    E   E  E    E  +E   E  E  E  E  E  +E   E  E  E E
|---------------------------------------------|-----------------------------------------|
|---------------------------------------------|-----------------------------------------|
|---------------------------------------------|-17-(17)-17-17-17-17-17-(17)-17-17-17-0--|
|-18-(18)-18-18-18-18-18-(18)--18---18--18--0-|-19-(19)-19-19-19-19-19-(19)-19-19-19-0--|
|-14-(14)-14-14-14-14-14-(14)--14---14--14--0-|--0--(0)--0--0--0--0--0--(0)--0--0--0-0--|
|--0--(0)--0--0--0--0--0--(0)---0----0---0--0-|-----------------------------------------|
|
|  E   E   E  E  E  E  E   E    E    E   E  E    E   E   E  E  E  E  E   H           E
|-14--14--14-14-14-14-14--14--(14)-(14)-------|-14--14--14-14-14-14---------------------|
|------------------------------17---17--17-17-|---------------------17---0--------------|
|---------------------------------------------|--------------------------0--------------|
|---------------------------------------------|--------------------------0--------------|
|---------------------------------------------|-----------------------------------------|
|---------------------------------------------|-----------------------------------------|


    H.                                   H.                               |
||------------------------------------------------------------------------|
||o-----------------------------------------------------------------------|
||------------------------------------------------------------------------|
||--9------------------------------------9--------------------------------|
||o-7------------------------------------7--------------------------------|
||--0------------------------------------0--------------------------------|

  H.                                   H.
|-----------------------------------------------------------------------|
|-----------------------------------------------------------------------|
|-----------------------------------------------------------------------|
|-9------------------------------------9--------------------------------|
|-7------------------------------------7--------------------------------|
|-0------------------------------------0--------------------------------|
|
|         |------3-------|                    |------3-------|            |
|   Q.    S    S    S    S   +E   +S  Q.      S    S    S    E   +E   +S  |
||------------------------------------------------------------------------|
||o------12--(12)----------------------------12--(12)---------------------|
||------------13--(13)----------------------------13--(13)----------------|
||-----------------14--(14)-(14)-(14)------------------14--(14)-(14)-(14)-|
||o---------------------14--(14)-(14)-----------------------14--(14)-(14)-|
||--0----(0)--(0)--(0)--(0)--(0)--(0)-0------(0)--(0)--(0)--(0)--(0)--(0)-|

        |------3-------|                    |------3-------|
  Q.    S    S    S    S   +E   +S  Q.      S    S    S    E   +E   +S
|-----------------------------------------------------------------------|
|------12--(12)----------------------------12--(12)---------------------|
|-----------13--(13)----------------------------13--(13)----------------|
|----------------14--(14)-(14)-(14)------------------14--(14)-(14)-(14)-|
|---------------------14--(14)-(14)-----------------------14--(14)-(14)-|
|-0----(0)--(0)--(0)--(0)--(0)--(0)-0------(0)--(0)--(0)--(0)--(0)--(0)-|


  H.                                   H.
|--------------------------------------------------------------------------||
|-------------------------------------------------------------------------o||
|--------------------------------------------------------------------------||
|--------------------------------------------------------------------------||
|-7------------------------------------7----------------------------------o||
|-8------------------------------------8-----------------------------------||
|
|       |------3-------|                    |------3-------|
| Q.    S    S    S    S   +E   +S  Q.      S    S    S    E   +E   +S
|--------------------------------------------------------------------------||
|------12--(12)----------------------------12--(12)-----------------------o||
|-----------13--(13)----------------------------13--(13)-------------------||
|----------------14--(14)-(14)-(14)------------------14--(14)-(14)-(14)----||
|---------------------14--(14)-(14)-----------------------14--(14)-(14)---o||
|-0----(0)--(0)--(0)--(0)--(0)--(0)-0------(0)--(0)--(0)--(0)--(0)--(0)----||


  Q=120
                                                     >
  W.              +W.              +W.              +W          H
|---------------|----------------|----------------|-------------------*|
|---------------|----------------|----------------|-------------------*|
|-9-------------|-(9)------------|-(9)------------|-(9)---------------*|
|-9-------------|-(9)------------|-(9)------------|-(9)---------------*|
|-7-------------|-(7)------------|-(7)------------|-(7)---------------*|
|-0-------------|-(0)------------|-(0)------------|-(0)---------------*|
|
| W.              +W.              +W.              +W          H
|---------------|----------------|----------------|-------------------*|
|---------------|----------------|----------------|-------------------*|
|---------------|----------------|----------------|------------(0)----*|
|---------------|----------------|----------------|------------(0)----*|
|---------------|----------------|----------------|------------(0)----*|
|-0-------------|-(0)------------|-(0)------------|-(0)--------(0)----*|


Duration Legend
---------------
W - whole; H - half; Q - quarter; E - 8th; S - 16th; T - 32nd; X - 64th; a - acciaccatura
+ - note tied to previous; . - note dotted; .. - note double dotted
Uncapitalized letters represent notes that are staccato (1/2 duration)
Irregular groupings are notated above the duration line
Duration letters will always appear directly above the note/fret number it represents the
duration for.  Duration letters with no fret number below them represent rests.  Multi-
bar rests are notated in the form Wxn, where n is the number of bars to rest for.  Low
melody durations appear below the staff

Tablature Legend
----------------
 h   - hammer-on
 p   - pull-off
 b   - bend
 pb  - pre-bend
 r   - bend release (if no number after the r, then release immediately)
 /\  - slide into or out of (from/to "nowhere")
 s   - legato slide
 S   - shift slide
  - natural harmonic
[n]  - artificial harmonic
n(n) - tapped harmonic
 ~   - vibrato
 tr  - trill
 T   - tap
 TP  - trem. picking
 PM  - palm muting
\n/  - tremolo bar dip; n = amount to dip
 \n  - tremolo bar down
 n/  - tremolo bar up
/n\  - tremolo bar inverted dip
 =   - hold bend; also acts as connecting device for hammers/pulls
 <>  - volume swell (louder/softer)
 x   - on rhythm slash represents muted slash
 o   - on rhythm slash represents single note slash

Misc Legend
-----------
 |  - bar
||  - double bar
||o - repeat start
o|| - repeat end
*|  - double bar (ending)
 :  - bar (freetime)
 $  - Segno
 &  - Coda
Tempo markers -  = BPM(8/16=s8/s16), where s8 = swing 8ths, s16 = swing 16ths


***************************************************************************************
* Generated using Power Tab Editor by Brad Larsen - http://powertab.guitarnetwork.org *
***************************************************************************************

            
            
Suggest correction
Creating personal tab
Creating personal tab
You can edit any tab online and save it as your Personal.

You can edit, replace or remove any tab part or add personal notes – all changes will be seen only by you.

Personal tabs can be accessed anytime from any device, even offline.
Learn more »
Give kudos to tab author, rate the tab!
1 2 3 4 5
comments
print report bad tab
guest
You may want to rate the tab now too:
select rating
Wanna post a correction for this tab? Suggest correction