Oops, an error
Loading. Please wait.

Memorial Bass Tab

version 1
version 1

Whole song

Interactive

1,185 views 3 this week
no commentswrite comment
1 2 3 4 5
please rate
add to favorites
launch autoscroll
font size
0
reset
guitar tuner
Tab Pro tools
  • play this tab
  • loop segment
  • change instrument
  • show fretboard
  • metronome
×
Best way to learn
"Memorial"
Autoscroll
slow
fast
+/-
esc
set tempo
stop
Difficulty
novice
1:00-1:26
G--------------------------------------------------------------------------|
D--12-11----12---------11--------12---------11----------7---12/14----------|
A----------0-----14--0-----12--0------14--0-----12---5---------------------|   x2
E--------------------------------------------------------------------------|

1:53

G-------------------------------------------|
D--12-11-----7-----5---7----12/14\11--------| play once
A----------5-----0--------------------------|
E-------------------------------------------|

2:12

G--9----------|
D-----7-7-----|
A-------------|  x9
E-------------|

2:41

G------9---------------9---------------|
D--7------7/11----7------7-7-----------|
A--------------------------------------|  x3.5
E--------------------------------------|

3:33

G---------------------------------------------------|
D---------------------------------------------------|
A--7---5---7---7---5---5---7----7---5---5---7-------|
E---------------------------------------------------|

4:18

G-------------------|
D-------------------|
A--12-12-12-12------|  x8
E-------------------|

4:25

G----------------------------------------------|
D--7-9-11-12-14--------------------------------|
A----------------------------------------------|   played 8 each except 14
E----------------------------------------------|

4:39

G--------------------|
D--------------------|
A--3--------0--------|
E-------0-------0----|

4:50-5:08

G------------|
D------------|
A------3-----|  x3
E--0-------0-|

5:08-8:11

G-------------------------------------------------|
D-----2--2/4-----2--2/4---------------------------|
A--------------------------3-3-3-3-3-3-2-2--------|  repeat through above duration
E--0-----------0------------------------------0---|

8:11-end

G------------------------|
D--3-3-3-3---------------|
A------------2-2-2-2-----| repeat until end (2 or 3 times)
E------------------------|
comments
We did not receive enough feedback on this tab! Please rate:
print report bad tab
1 2 3 4 5
I want to post or [tab]
guest
You may want to rate the tab now too:
select rating
Please do not post tabs as comments. Select "correction" instead!