Oops, an error
Loading. Please wait.

Moon Is Down Tab

version 1
version 1

Intro

Whole song

Interactive

4,009 views 1 this week
9 commentsread comments
1 2 3 4 5
x 7
add to favorites
launch autoscroll
font size
0
reset
how to read this tab
guitar tuner
Autoscroll
slow
fast
+/-
esc
set tempo
stop
Help us to improve Ultimate-Guitar.com Take our survey!
×
Difficulty
novice
explosions in the sky - the moon is down

intro:

e-|--------3-------------------0---5-----5-----3----|
B-|--3-------6---5-----3-----6-------5-----6-----5--|
G-|----5-----------5-----4--------------------------|
D-|--------5-----------------------7-----3-----5----|
A-|--------------------5-----5----------------------|
E-|--5-----------5----------------------------------|

/martin
Suggest correction
comments
print report bad tab
9 comments total. Showing first comments.
-1 reply
ToadlyCool 80 Oct 02, 2008 03:42 AM

Weak, it sounds so much better and its so much easier too play it the way in the other tab

-1 reply
omertoscar 549 Aug 06, 2009 09:00 PM

e-|----------------------------0---5-----5-----3-----|
B-|--------8--6---5-----3-----6-------5-----6-----5--|
G-|--7--5-----------5-----4--------------------------|
D-|---------------------0-----0----------3-----3-----|
A-|--0-----8-----0-----------------0-----------------|
E-|--------------------------------------------------|

-1 reply
omertoscar 549 Aug 06, 2009 09:04 PM

sorry jjaja

e-|----------------------------0---5-----5-----3----|
B-|--------8--6---5-----3-----6-------5-----6-----5--|
G-|--7--5-----------5-----4--------------------------|
D-|---------------------0-----0----------3-----------|
A-|--0-----8-----0-----------------0------------3----|
E-|--------------------------------------------------|

guest
You may want to rate the tab now too:
select rating
Wanna post a correction for this tab? Suggest correction